A Perfect Circle - 3 Libras Acoustic tab

ok, there is the correct (...and full) 3 libras version that i promissed you (remember
i wrote orestes...), so... ?JUST ENJOY THIS EXCELLENT APC SONG!

This tablature is for acoustic guitar in the normal tune (EBGDAE)


INTRO:

--------------------------------------------------| --0--------0--0--------0--0--------0--4--------4--| --------------------------------------------------| -----2-----------2-----------2-----------6--------| --0-----0-----0-----0-----0-----0-----4-----4-----| --------------------------------------------------|
--------------------------------------------------| --0--------0--0--------0--7--------7--4--------4--| --------------------------------------------------| -----2-----------2-----------9-----------6--------| --0-----0-----0-----0-----7-----7-----4-----4-----| --------------------------------------------------|
--------------------------------------------------| --0--------0--0--------0--0--------0--4--------4--| --------------------------------------------------| -----2-----------2-----------2-----------6--------| --0-----0-----0-----0-----0-----0-----4-----4-----| --------------------------------------------------|
--------------------------------------------------| --0--------0--0--------0--7--------7--4--------4--| --------------------------------------------------| -----2-----------2-----------9-----------6--------| --0-----0-----0-----0-----7-----7-----4-----4-----| --------------------------------------------------|
------------------------------------------------| --5--------5--5--------5--5--------5--------5---| ------------------------------------------7-----| -----7-----------7-----------7----------7-------| --5-----5-----5-----5-----5-----5-----5---------| ------------------------------------------------|
threw you...
---------------------------------------------------| --0--------0--0--------0--2--------2--3--------5---| ---------------------------------------------------| -----2-----------2-----------4-----------5---------| --0-----0-----2-----2-----2-----2-----5-----5------| ---------------------------------------------------|
...dificult is not...
-----------------------------------------------------------| --0--------0--0--------0--------0--7--------7--4--------4--| -----------------------------------------------------------| -----2-----------2--------2-----------9-----------6--------| --0-----0-----0-----0--0-----0-----7-----7-----4-----4-----| -----------------------------------------------------------|
------------------------------------------------------| --4--------4--4--------4--4--------4------------------| ------------------------------------------------------| -----6-----------6-----------6------------------------| --4-----4-----4-----4-----4-----4---------------------| ------------------------------------------------------|
...but i look...
-----------------------------------------------------------| --0--------0--0--------0--------0--7--------7--4--------4--| -----------------------------------------------------------| -----2-----------2--------2-----------9-----------6--------| --0-----0-----0-----0--0-----0-----7-----7-----4-----4-----| -----------------------------------------------------------|
-----------------------------------------------------| --4--------4--5--------5--------5--------------------| ------------------------------7----------------------| -----6-----------7----------7------------------------| --4-----4-----5-----5-----5--------------------------| -----------------------------------------------------|
bridge mute but i threw...
---------------------------------------------------| --0--------0--0--------0--2--------2--3--------5---| ---------------------------------------------------| -----2-----------2-----------4-----------5---------| --0-----0-----2-----2-----2-----2-----5-----5------| ---------------------------------------------------|
...here I am expecting...
-----------------------------------------------------------| --0--------0--0--------0--------0--7--------7--4--------4--| -----------------------------------------------------------| -----2-----------2--------2-----------9-----------6--------| --0-----0-----0-----0--0-----0-----7-----7-----4-----4-----| -----------------------------------------------------------|
------------------------------------------------------| --4--------4--4--------4--4--------4------------------| ------------------------------------------------------| -----6-----------6-----------6------------------------| --4-----4-----4-----4-----4-----4---------------------| ------------------------------------------------------|
...but i see...
-----------------------------------------------------------| --0--------0--0--------0--------0--7--------7--4--------4--| -----------------------------------------------------------| -----2-----------2--------2-----------9-----------6--------| --0-----0-----0-----0--0-----0-----7-----7-----4-----4-----| -----------------------------------------------------------|
-----------------------------------------------------| --4--------4--5--------5--------5--------------------| ------------------------------7----------------------| -----6-----------7----------7------------------------| --4-----4-----5-----5-----5--------------------------| -----------------------------------------------------|
so i threw... (you can do it using the other E,C and F positions)
E C F ----------------| ----------------| --1111-00-22----| --2222-22-33----| --2222-33-33----| --0000-33-11----|
Now repeat the intro and then do this... you don?t... (here billy doesn?t do any chord, but, you can do this)
--------------------------------| ----------------------0--99--6--| ----------------------2--99--6--| Continue doing the same ----------------------2--77--4--| and finish with... --4-4-4-4-4-4-4/2-2---2--77--4--| ----------------------0--77--4--|
-----------------| --4--5-----5555--| --6--7-----7777--| --6--7-7-7-7777--| --4--5-5-5-5555--| --4--5-5-5-5555--|
LYRICS: threw you the obvious and you flew with it on your back a name in your recollection down among a million same difficult not to feel a little bit disappointed and passed over when i've looked right through to see you naked and oblivious and you don't see me but i threw you the obvious just to see if there's more behind the eyes of a fallen angel eyes of a tragedy here i am expecting just a little bit too much from the wounded but i see through it all and see you so i threw you the obvious to see what occurs behind the eyes of a fallen angel eyes of a tragedy oh well apparently nothing you don't see me you don't see me at all (this is not part of the song but guess what???) B --5-555-0-5-7-9-7------------------- Oh well. That was all the song any comments to eaec@uol.com.co GOOD BYEEE (i wipe off on the tile the...)
Tap to rate this tab
 
# A B C D E F G H I J K L M N O P Q R S T U V W X Y Z