A Shell In The Pit – The Dog tab

Title: The Dog
Artist: A Shell in the Pit
        Website:       http://www.ashellinthepit.com/
        Bandcamp page: http://ashellinthepit.bandcamp.com/
Album: Smarter Every Day
Tempo = 120

This Tabulature may not be perfect. Message me if you think that a part is wrong.


                                                                   
E |-----------5----------------------|--------------------3-------|B |--7-------------------------------|-----------3----------------|G |--------------------6-----7-------|--4--------------4----------|D |----------------------------------|----------------------------|A |--5-----5-----5-------------------|----------------------------|E |--------------------5-----7-------|--3-----3-----3-----3-------|
-----------7----------------------|----------------------|---------------------||--8-------------------------------|--8--------7----------|--7--------5---------||--------------------6-----7-------|--7--------7----------|--6--------6--------o||----------------------------------|----------------------|--------------------o||--7-----7-----7-------------------|----------------------|---------------------||--------------------5-----7-------|--7-----7-----7-------|--5-----5-----5------||
----------------------------------|----------------------------|--------------------5-------------|--5-----3-----------3-------|-----------2s-4--------------4----|-----------------2----------|--0-------------------------------|----------------------------|----------------------------------|----------------------------|----------------------------------|----------------------------|
--2h-0--------0-----5----------|----------------------------------|--------0h-3-----3-------------|--------------------5-------------|-------------------------------|-----------2s-4--------------4----|-------------------------------|--0-------------------------------|-------------------------------|----------------------------------|-------------------------------|----------------------------------|
^ ----------------|----------------------------------|--5--3----------|--------------------5-------------|-----2----------|-----------2s-4--------------4----|-----0----------|--0-------------------------------|----------------|----------------------------------|----------------|----------------------------------|
----------------------------|--2h-0--------0-----5----------|--5-----3-----------3-------|--------0h-3-----3-------------|-----------------2----------|-------------------------------|----------------------------|-------------------------------|----------------------------|-------------------------------|----------------------------|-------------------------------|
----------------------------------|----------------|--------------------5-------------|--5--3----------|-----------2s-4--------------4----|----------------|--0-------------------------------|----------------|----------------------------------|----------------|----------------------------------|----------------|
-------------------------------|----------------------------------|--------------0h-2h-3----------|--------------------5-------------|--------0h-2-------------------|-----------2s-4--------------4----|--0h-4-------------------------|--0-------------------------------|-------------------------------|----------------------------------|-------------------------------|----------------------------------|
----------------------------|--2h-0--------0-----5----------|--5-----3-----------3-------|--------0h-3-----3-------------|-----------------2----------|-------------------------------|----------------------------|-------------------------------|----------------------------|-------------------------------|----------------------------|-------------------------------|
^----------------------------------|----------------|--------------------5-------------|--5--3----------|-----------2s-4--------------4----|-----2----------|--0-------------------------------|-----0----------|----------------------------------|----------------|----------------------------------|----------------|
----------------------------------|----------------------------|--------------------5-------------|--5-----3-----------3-------|-----------2s-4--------------4----|-----------------2----------|--0-------------------------------|----------------------------|----------------------------------|----------------------------|----------------------------------|----------------------------|
--2h-0--------0-----5----------|----------------------------------|--------0h-3-----3-------------|--------------------5-------------|-------------------------------|-----------2s-4--------------4----|-------------------------------|--0-------------------------------|-------------------------------|----------------------------------|-------------------------------|----------------------------------|
----------------|-------------------------------||--5--3----------|--------------0h-2h-3----------||----------------|--------0h-2-------------------||----------------|--0h-4-------------------------||----------------|-------------------------------||----------------|-------------------------------||
Legend L - tied note x - dead note h - hammer on/pull off b - bend s - slide ~ - vibrato g - ghost note > - accentuated note t - trill M - palm mute . - staccato P - popping (bass) S - slapping (bass) + - tapping W - wide vibrato < - fade in w - whammy bar = - tremolo picking v - brush up ^ - brush down V - pick stroke up n - pick stroke down
Please rate this tab:
x1.0