A Skylit Drive – All Star Diaries tab

DROP D TUNING

I looked at the other tabs that i could find of this song, and none of them sounded 
so i went through and corrected what they had.

it's my first tab, hopefully it's okay...?


By the way, you guys probably know this, BUT...

the |---| and |----| are the same note.. |-8-| |----| so use what one feels |---| |-12-| more comfortable. |---| |----| |---| |----| |---| |----|
I change them through the song that what i thought was most comfortable. Alright, enjoy =]
intro|----------10-10-10--------12-12-12---------10-10-10---------12-12-12--||-------10--------------10---------------10--------------10------------||--9-12------------9-12-------------9-12------------9-12---------------||----------------------------------------------------------------------||----------------------------------------------------------------------||----------------------------------------------------------------------|
0:08|------------10-8-----------12-10-----12-10----||-----------------8---------------8---------8--||--9--12--9------------------------------------||----------------------------------------------||----------------------------------------------||----------------------------------------------|
0:13 and 0:16|------------------10-10-10----12-10----------------------||-----------------------------------12-10-10-10-12-12-12--||--9-9-9--12-12-12----------------------------------------||---------------------------------------------------------||---------------------------------------------------------| x2|---------------------------------------------------------|
0:19|--------10-----12-(12)---10--||----8------8-----------8-----||--9---9------9---------------||-----------------------------||-----------------------------||-----------------------------|
0:25|------------------------------||------------------------------||------------------------------||--/7-----5-9^10-9---9-9h10p7--||------------------------------||------------------------------|
0:35|---------------------|---------------------------||---------------------|---------------------------||----------5-7-5-4-4--|----------5-7-5-4---4/5\2--||------5-7------------|------5-7------------------||--5-7----------------|--5-7----------------------||---------------------|---------------------------|
0:45 VERSE 0:58 VERSE|------------7------|-----------------||--------------8----|-----------------||-------------------|-----------------||--7---3---7-----3--|--7---3---7---3--||--7---3---7-----3--|--7---3---7---3--||--7---3---7-----3--|--7---3---7---3--|
1:11 1:16|---------10-12-10--|---------12-7-3/7-7--||----8-10-----------|----8-10-------------||--9----------------|--9------------------||-------------------|---------------------||-------------------|---------------------||-------------------|---------------------|
1:21 1:26|---------10-12-10--|---------12-10-3/7-7\3--||----8-10-----------|----8-10----------------||--9----------------|--9---------------------||-------------------|------------------------||-------------------|------------------------||-------------------|------------------------|
1:31|--12---10\8---12-10\7---10-8\3^--||---------------------------------||---------------------------------||---------------------------------||---------------------------------||---------------------------------|
1:44|-----------------||-----------------||-----------------||--7---3---7---3--||--7---3---7---3--||--7---3---7---3--|
1:58 (intro parts)|----------10-10-10--------12-12-12---------10-10-10---------12-12-12--||-------10--------------10---------------10--------------10------------||--9-12------------9-12-------------9-12------------9-12---------------||----------------------------------------------------------------------||----------------------------------------------------------------------||----------------------------------------------------------------------|
2:03|------------10-8-----------12-10--------12-10-----||-----------------8--------------------------------||--9--12--9-----------------------12-----------12--||--------------------------------------------------||--------------------------------------------------||--------------------------------------------------|
2:08 and 2:11|------------------10-10-10----12-10----------------------||-----------------------------------12-10-10-10-12-12-12--||--9-9-9--12-12-12----------------------------------------||---------------------------------------------------------||---------------------------------------------------------| x2|---------------------------------------------------------|
2:15|--------10-----12-(12)---10--||----8------8-----------8-----||--9---9------9---------------||-----------------------------||-----------------------------||-----------------------------|
2:20|------------------------------||------------------------------||------------------------------||--/7-----5-9^10-9---9-9h10p7--||------------------------------||------------------------------|
2:30|---------------------|---------------------------||---------------------|---------------------------||----------5-7-5-4-4--|----------5-7-5-4---4/5\2--||------5-7------------|------5-7------------------||--5-7----------------|--5-7----------------------||---------------------|---------------------------|
2:40|--12---10\8---12-10\7---10-8\3^--||---------------------------------||---------------------------------||---------------------------------||---------------------------------||---------------------------------|
2:53|-----------------||-----------------||-----------------||--7---3---7---3--||--7---3---7---3--||--7---3---7---3--|
3:06|----------10-10-10--------12-12-12---------10-10-10---------12-12-12--||-------10--------------10---------------10--------------10------------||--9-12------------9-12-------------9-12------------9-12---------------||----------------------------------------------------------------------||----------------------------------------------------------------------||----------------------------------------------------------------------|
3:11|------------10-8-----------12-10--------12-10-----||-----------------8--------------------------------||--9--12--9-----------------------12-----------12--||--------------------------------------------------||--------------------------------------------------||--------------------------------------------------|
3:17 and 3:21|------------------10-10-10----12-10----------------------||-----------------------------------12-10-10-10-12-12-12--||--9-9-9--12-12-12----------------------------------------||---------------------------------------------------------||---------------------------------------------------------| x2|---------------------------------------------------------|
3:24|--------10-----12-(12)---10--||----8------8-----------8-----||--9---9------9---------------||-----------------------------||-----------------------------||-----------------------------|
3:29|---------------|-8-----|--------------------||---------------|---6---|-a few times (five?)||---------------|-----9-|--------------------||--7/10---7/10--------------7/10/3---7/10/3--||--7/10---7/10--------------7/10/3---7/10/3--||--7/10---7/10--------------7/10/3---7/10/3--|
3:59|----------10-10-10--------12-12-12---------10-10-10---------12-12-12--||-------10--------------10---------------10--------------10------------||--9-12------------9-12-------------9-12------------9-12---------------||----------------------------------------------------------------------||----------------------------------------------------------------------||----------------------------------------------------------------------|
Please rate this tab:
x1.0