A Wilhelm Scream - The King Is Dead tab

Raein - The King Is Dead
Credit: Billykidman (me)
Tuning: Standard or Drop D

Clean Guitar:E||--------------------------|-------------------------|B||------------0-------------|-----------0-------------|G||*--------5-------------5--|--------5-------------5--|D||*-----7-------------7-----|-----7-------------7-----|A||---0-------------0--------|--0-------------0--------|E||--------------------------|-------------------------|
--------------------------|---------------------------|--------1--------1--------|---------------------------|-----2--------2--------2--|*--------5--4----------5--*|--3--------3--------2-----|*-----7-----7-------7-----*|--------------------------|---0-------------0---------|--------------------------|---------------------------|
Distortion Guitar:---------------------------||--3----3--|--3----3--|--0----0--|--------1--------1---------||--0----0--|--0----0--|--0----0--|-----2--------2--------2--*||--2----2--|--2----2--|--2----2--|--3--------3--------2-----*||--3----3--|--3----3--|--3----3--|---------------------------||----------|----------|----------|---------------------------||----------|----------|----------|
--0--0--0--0--0--0--0--0--|--3----3--|--3----3--|--0----0--|--0--|--0--0--0--0--0--0--0--0--|--0----0--|--0----0--|--0----0--|--0--|--2--2--2--2--2--2--2--2--|--2----2--|--2----2--|--2----2--|--2--|--3--3--3--3--3--3--3--3--|--3----3--|--3----3--|--3----3--|--3--|--------------------------|----------|----------|----------|-----|--------------------------|----------|----------|----------|-----|
|---0--0--0--0-0--0--0--0-0--|--3--0--0--0-0--0--0--0-0--||---0--0--0--0-0--0--0--0-0--|--3--3--3--3-3--3--3--3-3--||*--2--2--2--2-2--2--2--2-2--|--2--2--2--2-2--2--2--2-2--||*--3--3--3--3-3--3--3--3-3--|--2--2--2--2-2--2--2--2-2--||----------------------------|---------------------------||----------------------------|---------------------------|
-----------------------------||--------------------------|--1--1-1--1--1-0--0-0--0--0--||--------------------------|--2--2-2--2--2-2--2-2--2--2-*||*--2---2---2--2--2--2--2--|--2--2-2--2--2-2--2-2--2--2-*||*--3---3---3--3--3--3--3--|-----------------------------||---0---0---0--0--0--0--0--|-----------------------------||--------------------------|
-------------------------|--0---0---0--0--0--0--0--|-------------------------|--1---1---1--1--1--1--1--|--2---2---2--2--2--2--2--|--2---2---2--2--2--2--2--|--3---3---3--3--3--3--3--|--3---3---3--3--3--3--3--|--0---0---0--0--0--0--0--|-------------------------|-------------------------|-------------------------|
--0---0---0--0--0--0--0---||--0---0---0--0--0--0--0---||--2---2---2--2--2--2--2--*|| x5--3---3---3--3--3--3--3--*||--------------------------||--------------------------||
--0-------------|--------------------|--------------------|--1-------------|--------------------|--------------------|--2-------------|--4/5--5------------|--5/7--7------------|--3-------------|-------7------------|--------------------|----------------|--------------------|--------------------|----------------|--------------------|--------------------|
------------------|--------------------|--------------------|------------------|--------------------|--------------------|--7\5--4/5--5-----|--7\5--4------------|--4/5--5------------|------------------|--------------------|-------7------------|------------------|--------------------|--------------------|------------------|--------------------|--------------------|
------------------|------------------|--------------------|------------------|------------------|--------------------|--7\5--4/5--------|--7\5--4/5--------|--5/7--7------------|------------------|------------------|--------------------|------------------|------------------|--------------------|------------------|------------------|--------------------|
Repeat this for the rest of the song|------------------------------|--------------------------------|||------------------------------|--------------------------------|||*--4/5-5-5-5\----7-7-7-7-7----|--8-8-8-8-8----9-9-9-9-9-9-9-9-*|||*-----------------------------|-------------------------------*|||---2/3-3-3-3\----5-5-5-5-5----|--6-6-6-6-6----7-7-7-7-7-7-7-7--||
Tap to rate this tab
 
# A B C D E F G H I J K L M N O P Q R S T U V W X Y Z