Abigor - Towards Beyond tab

Transcribed by: Peter Kubik(of Abigor)
ABIGOR - ‘Towards Beyond’ from ‘Channeling The Quintessence Of Satan’ 
(NAPALM RECORDS) NPR062 / 1999 C+R ABIGOR/NPR

|---------------|---------------||---------------|---------------||------0-4-0----|------6-7-6----||---2--------2--|---4--------4--||3--------------|5--------------||---------------|---------------|
|--------------|-----------------||--------------|----------0------||--------------|--------0---0----||2-----5-5-/-2-|2-----1-------1--||3-3-3-6-6-/-3-|3--2-------------||--------------|-----------------| x x x
|-------------------------||-------------------------||-------------------------||--9-10-9-4---5---8-7-5-7-||2-7-8--7-2---3---6-5-3-5-||0------------------------|
|----------------------|-------------------------------||----------------------|-------------------------------||----------------------|-------------------------------||10-9-7-2-3---8-7-5-7--|10-9-7-2-3---8-7-5-7--4-3-1-3--||-------------8-7-5-7--|-------------8-7-5-7--4-3-1-3--||----------------------|-------------------------------|
|-----------------------------------------------------||-----------------------------------------------------||-----------4-9-8------8-7----------------------------||---2-5-4-5-------9-6------8-5-------------6-5--------||0-----------------------------8-7-5-4-5-7-----5-3----||-----------------------------------------------------|
|------------------||------------------||6-------3--4------||4-----3------4----||4---1----------2--||------------------|
|----------|----------|-----------|-----------------||----------|----------|-----------|-----------------||----2-----|----1-----|-----2-----|----5--------7---||--3---3---|--2---2---|---3---3---|--6---6----8---8-||5-------5-|4-------4-|5--------5-|8-------10-------||----------|----------|-----------|-----------------|
|-----------------------------------|-----------------------------------||-----------------------------------|-----------------------------------||------7-6-7-6-6-7-6-9-10-9-9-10-9--|------7-6-7-6-6-7-6-9-10-9-9-10-9--||---7-------------------------------|---7-------------------------------||9----------------------------------|9----------------------------------||-----------------------------------|-----------------------------------|
|
|---------------|-------------||---------------|-------------||------3--2--6--|-----3-4-5---||---3-----------|---3---2-2---||5--------------|5------------||---------------|-------------|
|----------------------------------------|--------------------------------||----------------------------------------|--------------------------------||----------------------------------------|--------------------------------||------7--------7--------7---6-7-6-6-7-6-|------7------7------7-----------||---7--------7--------7------------------|---7------7------7----8-/-0-----||9--------9--------9---------------------|9-------9------9------6-/-0-----| x x x x x x H P H P x x x x x x
|---------------------------|---------------------------------||--------0------------0-----|---------------------------------||-----9----9-------9----9---|-----9-10-------------9--8-------||--7---------7---7--------7-|--7-------7--------7-------6-----||0-------------0------------|8------------8--7-------------6--||---------------------------|---------------------------------|
Songstructure:
Tap to rate this tab
 
# A B C D E F G H I J K L M N O P Q R S T U V W X Y Z