Abigor – Demons Vortex tab

Transcribed by: Peter Kubik(of Abigor)
ABIGOR - ‘Demon’s Vortex’ from ‘Channeling The Quintessence Of Satan’ 
(NAPALM RECORDS) NPR062 / 1999 C+R ABIGOR/NPR

|--------------------|-----------------||--------------------|-----------------||----7---------6-----|----7----9-/-10--||--6---6-----5---5---|--6---6--7-/-8---||5--------4----------|5--------7-/-8---||--------------------|-----------------|Part 1 x x x x x x
|----------------------------|----------------------------||----------------------------|----------------------------||----------------------------|----------------------------||--0-----1-----0-------------|--2-----1-----0-------------||2---2-3---3-2---2-1-2-1-2-1-|0---0-3---3-2---2-7-8-7-8-7-||----------------------------|----------------------------|Part 2 x x x x x x x x x H P H P x x x x x x x x x H P H P
|-------------------| |-------------------||------10-9----7-8--||--7-8------10------||0------------------||-------------------|Riff 1
|---------------------||---------------------||---------------------||2-----5--6--5--6--3--||2-----5--6--5--6--3--||---------------------|Riff 2
|---------------------------||---------------------------||----2------2-----2--5------||--2-----3------2------3-2--||0-----0------0-------------||---------------------------|Riff 3
|----------------------------------|--------------------------|-----------||----------------------------------|--------------------------|-----------||--------4-3-------4-3-------------|2-1---3-2---5-4---4-3-----|2-1---3-2--||----4-5-----4-5-2-----4-5-2-/-5-1-|----3-----3-----5-----4-1-|----3-----3||--2-------------------------------|--------------------------|-----------||0---------------------------------|--------------------------|-----------|
| |
|---------------||---------------||5-4---4-3------||----5-----4-1--||---------------||---------------|Riff 4
|0--0--0--0--|-----------------------|0--0--0--0--|-----------------------||0--0--0--0--|-----------------------|0--0--0--0--|-----------------------||0--0--0--0--|-----------------------|0--0--0--0--|-----------------------||2--2--2-----|-5-/-6-/-5-------------|2--2--2-----|-5-/-6-/-5-------------||2--2--2-----|-3-/-4-/-3-/-3-/-5-/-4-|2--2--2-----|-3-/-4-/-3-/-3-/-5-/-4-||0--0--0-----|-3-/-4-/-3-/-1-/-3-/-2-|0--0--0-----|-3-/-4-/-3-/-1-/-3-/-2-|
|
|--------------------------------|---------------------------------||--------------------------------|---------------------------------||--------------------------------|---------------------------------||--------------------------------|---------------------------------||7-/-8-/-7-/-5-/-7-/-8-/-11-/-10-|7-/-8-/-7-/-5-/-7-/-8-/-11-/-10--||5-/-6-/-5-/-3-/-5-/-6-/-9--/-8--|5-/-6-/-5-/-3-/-5-/-6-/-9--/-8---|Riff 5
|--------------|-----------------|-----------------------------||--------------|--------11-------|--7------------------5-------||----4---3-----|--11-------10----|-----9-7--------9-------7-5--||--0---5---4---|9----12-------12-|9--------11-9-7----7---------||2-----------5-|-----------------|-----------------------------||--------------|-----------------|-----------------------------|Riff 6
|------------------|------------|-----------------|-----------||------------------|------------|-----------------|-----------||----2--9--7--5--2-|--3-5-3-----|----2--5---2---2-|--3-5-3----||--2---------------|3-------3-0-|--2----------2---|3------3-0-||0-----------------|------------|0----------------|-----------||------------------|------------|-----------------|-----------|Riff 7
|------------------------|------------------------|5-0-7-0-8-0-7-0-|5-0-7-||5-4-5-0-7-5-7-0-8-7-8-0-|5-4-5-0-7-5-7-0-8-7-8-0-|----------------|------||------------------------|------------------------|----------------|------||------------------------|------------------------|----------------|------||------------------------|------------------------|----------------|------||------------------------|------------------------|----------------|------|
| |
|0-8-0-7-0-||----------||----------||----------||----------||----------|Riff 8
|--------------5---|-------------3---||--------------5---|-------------3---||--------------5---|-------------3---||---------8-7------|--------8-7------||------------------|-----------------||0-1-/-5-----------|0-1-/-5----------|Riff 9 H H
Songstructure: Part 1 2x Part 2 2x Part 1 2x Riff 1 4x Riff 2 4x Riff 1 4x Riff 3 4x Riff 4 2x Riff 3 4x E Riff 5 4x Riff 3 4x Riff 6 4x Riff 7 4x Riff 8 4x Riff 9 6x drums fade in ... Riff 3 4x A
Please rate this tab:
x1.0