Ac Dc - Have A Drink On Me tab

                               HAVE A DRINK ON ME
                              As recorded by AC/DC
                       (From the 1980 Album BACK IN BLACK)

Words and Music by Angus Young, Malcolm Young & Brian Johnson
Transcribed by www.mikesguitarsite.co.uk

          A5                    A                   D5                   C5
      x 0 2 2 x x          x 0 2 2 2 x          x x 0 2 3 x          x 3 5 5 x x

          E5                  G5/D                  G5
      0 2 2 x x x          x x 0 0 x x          3 x 0 0 3 3

Intro grad. increase from 115 Q=122 4/4 Gtr I ~~~~~~~~~|------------------------|-------------------||------8--(8)--(8)---(8)-|-(8)------(8)------||-7s9-(9)-(9)--(9)---(9)-|-(9)------(9)-(9)\-||------------------------|-------------------||------------------------|-------------------||------------------------|-------------------|
||--------------------------------|---------------------||||o-----8-------------------------|---------7-(7)------o||||--7s9---9s7p5---7-5b6==(5)r-----|-5h6-----7-(7)-------||||--------------7-------------7---|---5-----7-(7)-------||||o-----------------------------0-|---0-0-0-0-(0)---0--o||||--------------------------------|---------------------||
Gtr I|-------------------------------|---------------------||-----8-------------------------|---------7-(7)-------||-7s9---9s7p5---7-5b6==(5)r-----|-5h6-----7-(7)-------||-------------7-------------7---|---5-----7-(7)-------||-----------------------------0-|---0-0-0-0-(0)-----0-||-------------------------------|---------------------|
|
| Gtr II| < <| PM----------------------------------------------||-------------------------------|---------------------||-------------------------------|---------------------||---------------2-----------2-2-|---2-2-2-2--2--2-2-2-||---------------2-----------2-2-|---2-2-2-2--2--2-2-2-||---0-0-0---0---0-0---------0-0-|---0-0-0-0--0--0-0-0-||-------------------------------|---------------------|
|--------------------------------||-----8--------------------------||-7s9---9s7p5---7-5b6==(5)r------||-------------7-------------7----||-----------------------------0--||--------------------------------|
|
| <|--------------------------------||--------------------------------||---2-2-2---2---2-2---------2-2--||---2-2-2---2---2-2---------2-2--||---0-0-0---0---0-0---------0-0--||--------------------------------|
|----------------|------------------|--------------------||------3-(3)-----|-------2-(2)------|---------7-(7)------||-2----2-(2)-----|-5---5-2-(2)------|-5h6-----7-(7)------||-2----0-(0)-----|-5---5-2-(2)------|---5-----7-(7)------||-0--0-0-(0)---0-|-3p0-3-0-(0)--0-0-|---0-0-0-0-(0)----0-||----------------|------------------|--------------------|
|
| PM PM||----------------|------------------|--------------------||------3-(3)-----|------------------|---------7-(7)------||-2----2-(2)---2-|-5---5-2-(2)------|-5h6-----7-(7)------||-2----0-(0)---2-|-5---5-2-(2)------|---5-----7-(7)------||-0--0-0-(0)---0-|-3-0-3-0-(0)--0-0-|---0-0-0-0-(0)--0-0-||----------------|------------------|--------------------|
|---------------------------|--------------------|-------------------||-----8---------------------|---------7-(7)------|-------2-(2)-------||-7s9---9s7p5---7-5b5.5-----|-5h6-----7-(7)------|-5---5-2-(2)-------||-------------7---------7---|---5-----7-(7)------|-5---5-2-(2)-------||-------------------------0-|---0-0-0-0-(0)----0-|-3-0-3-0-(0)----0--||---------------------------|--------------------|-------------------|
|
| PM| PM| PM| PM||---------------------------|--------------------|-------------------||-----8---------------------|---------7-(7)------|-------------------||-7s9---9s7p5---7-5b5.5-----|-5h6-----7-(7)------|-----5-2-(2)-------||-------------7-7-------7-0-|---5-----7-(7)------|-5---5-2-(2)-------||-------------0-0-------0-0-|---0-0-0-0-(0)--0-0-|-3-0-3-0-(0)--0-0--||---------------------------|--------------------|-------------------|
|---------------------|---------------------------||---------7-(7)-------|-----8---------------------||-5h6-----7-(7)-------|-7s9---9s7p5---7-5b5.5-----||---5-----7-(7)-------|-------------7---------7---||---0-0-0-0-(0)----0--|-------------------------0-||---------------------|---------------------------|
|
| PM||---------------------|---------------------------||---------7-(7)-------|-----8---------------------||-5h6-----7-(7)-------|-7s9---9s7p5---7-5b5.5-----||---5-----7-(7)-------|-------------7-7-------7---||---0-0-0-0-(0)---(0)-|-------------0-0-------0-0-||---------------------|---------------------------|
|--------------------|------------------|||---------7-(7)------|-------2-(2)------|||-5h6-----7-(7)------|-5---5-2-(2)------|||---5-----7-(7)------|-5---5-2-(2)------|||---0-0-0-0-(0)----0-|-3-0-3-0-(0)----0-|||--------------------|------------------||
|
| PM| PM| PM|--------------------|------------------|||---------7-(7)------|-------2-(2)------|||-5h6-----7-(7)------|-5-----2-(2)--2-0-|||---5-----7-(7)--0---|-5-----2-(2)------|||---0-0-0-0-(0)--0-0-|-3-0-3-0-(0)------|||--------------------|------------------||
Verse 1 & 2 $ Gtrs I, II PM--------| PM PM PM--------| PM PM||-----------------|-----------------|----------------|------------------||||o----------------|-----------------|----------------|-----------------o||||-----------------|-----------------|----------------|------------------||||--5--4-5---------|---5-5-4-5---7---|-5--4-5---------|---5-5-4-5---7----||||o-0--0-0-0-0-0-0-|-0-0-0-0-0-0-0-0-|-0--0-0-0-0-0-0-|-0-0-0-0-0-0-0-0-o||||-----------------|-----------------|----------------|------------------||
PM PM PM|-----------------|-----------------|---------------3--|-(3)---------------||-----------------|-----------------|-----------3-3-3--|-(3)---------------||---------------2-|-----------------|-----------0-0-0--|-(0)---------------||-5-5-4-5---2-2-2-|---5-5-4-5---7---|-5-5-4-5---0-0-0--|-(0)-5-5-4-5---7---||-0-0-0-0-0-0-0-0-|-0-0-0-0-0-0-0-0-|-0-0-0-0-0--------|-----0-0-0-0-0-0-0-||-----------------|-----------------|-----------3-3-3--|-(3)---------------|
|---------------3--|-(3)-----------------|-2----2-(2)------|-1----3-(3)-------|||-----------3-3-3--|-(3)-----------------|-3----3-(3)------|-1----3-(3)-------|||-----------0-0-0--|-(0)-----------------|-2----2-(2)-2-2--|-2----0-(0)--0-0--|||-5-5-4-5---0-0-0--|-(0)-5-5-4-5---7-0-0-|-0--0-0-(0)-0-0--|-3----0-(0)--0----|||-0-0-0-0-0-0-0-0--|-(0)-0-0-0-0-0-0-----|-----------------|-3----------------|||------------------|---------------------|-----------------|-1--0-3-(3)--3-0--||
Chorus Gtr I PM|-------------------|---------------------------||---------7-(7)-----|-----8---------------------||-5h6-----7-(7)-----|-7s9---9s7p5---7-5b5.5-----||---5-----7-(7)-----|-------------7---------7---||---0-0-0-0-(0)---0-|-------------------------0-||-------------------|---------------------------|
|
| Gtr II| PM||-------------------|---------------------------||---------7-(7)-----|-----8---------------------||-5h6-----7-(7)-----|-7s9---9s7p5---7-5b5.5-----||---5-----7-(7)---7-|-------------7-7-------7-0-||---0-0-0-0-(0)-----|-------------0-0-------0-0-||-------------------|---------------------------|
|--------------------|------------------|||---------7-(7)------|-------2-(2)------|||-5h6-----7-(7)------|-5---5-2-(2)------|||---5-----7-(7)------|-5---5-2-(2)------|||---0-0-0-0-(0)----0-|-3-0-3-0-(0)----0-|||--------------------|------------------||
|
| PM|--------------------|------------------|||---------7-(7)------|-------2-(2)------|||---6-----7-(7)------|-5---5-2-(2)------|||---5---0-7-(7)--0-0-|-5---5-2-(2)------|||---0-0-0-0-(0)--0-0-|-3-0-3-0-(0)--0-0-|||--------------------|------------------||
|-------------------|---------------------------||---------7-(7)-----|-----8---------------------||-5h6-----7-(7)-----|-7s9---9s7p5---7-5b5.5-----||---5-----7-(7)-----|-------------7-7-------7-0-||---0-0-0-0-(0)-----|-------------0-0-------0-0-||-------------------|---------------------------|
|
| PM||-------------------|---------------------------||---------7-(7)-----|-----8---------------------||-5h6-----7-(7)-----|-7s9---9s7p5---7-5b5.5-----||---5-----7-(7)---7-|-------------7-7-------7-0-||---0-0-0-0-(0)-----|-------------0-0-------0-0-||-------------------|---------------------------|
To Coda PM|-----------------|-------------------||------3-(3)------|-------------------||-2----2-(2)------|-5-----2-(2)-------||-2----0-(0)--0---|-5-----2-(2)-------||-0--0-0-(0)----0-|-3-0-3-0-(0)--0-0--||-----------------|-------------------|
|
| PM|-----------------|-------------------||------3-(3)------|-------------------||-2----2-(2)------|-5-----2-(2)-------||-2----0-(0)--0---|-5-----2-(2)-------||-0--0-0-(0)----0-|-3-0-3-0-(0)--0-0--||-----------------|-------------------|
D.S. al Coda|----------------|-------------------|-----------------|--------------------|||----------------|-------------------|-----------------|--------------------|||----------------|-------------------|-----------------|--------------------|||-5--4-5-(5)-----|-----5-5-4-5---7---|-5-5-4-5-(5)-----|-----5-5-4-5---7----|||-0--0-0-(0)--0--|-(0)-0-0-0-0-0-0-0-|-0-0-0-0-(0)--0--|-(0)-0-0-0-0-0-0-0--|||----------------|-------------------|-----------------|--------------------||
Guitar Solo & CACA5 E5 GA5D G5/D E5 G5/D A5 G5/D Gtr II ||||| | | | ||| | | | | | | | | /o/// / / / /// / / / / / / / /
Gtr I ~~~~~~~~~ ~~~~~~|-------------||-------------------------|---------------------------------||-------x-x-5-||-(5)----3-0--------------|------3--------------------------||-------------||------------2-0-2-(2)b4==|=(2)r---2pb4r(2)p0--------2-2b4==||-------------||-------------------------|-------------------2-(2)--0------||-------------||-------------------------|---------------------------------||-------------||-------------------------|---------------------------------|
E5 G5 A5 G5 G5D5 G5E5 | | | | | | | | | | | | / / / / / / / / / / / /
~~~~~~|------0-0-0-----------------------------|-----------------------||------------3-0-3-0---------------------|---3-3-3-(3)-----5-7p5-||-(2)rp0-------------2-0-2b3==(2)r-2-0-2s|=4---4-------4s6-6-----||----------------------------------------|-----------------------||----------------------------------------|-----------------------||----------------------------------------|-----------------------|
G5/D A5 G5/D | | | | | | / / / / / /
|-----------0----------------------------------------------------------||-7b9==(7)r---7b9==(7)r----7b8.5==(7)r---7b8.5==(7)r----7b8.5==(7)r----||------------------------9-------------9--------------9--------------9-||----------------------------------------------------------------------||----------------------------------------------------------------------||----------------------------------------------------------------------|
E5 G5/D A5 G5/D | | | | | | / / / / / /
|-----------0-----------------------------0----------0------||-7b9==(7)r---7b9==(7)r---7b9==(7)r-7b9==(7)r--7b9==(7)r(7)-||-----------------------9-----------------------------------||-----------------------------------------------------------||-----------------------------------------------------------||-----------------------------------------------------------|
E5 G5/D A5 G E5 G E5 G5/D | | | | | | | | | | | | | / / / / x o / / o / / / /
~~~~~~~~~~~ PM ~~~~~~~~~~~|-----------------------------0--------|-----------------------------------------||-5-8-7p5---5---5-(5)-(5)s2-----0-8b9==|=(8)r-0-0-7------------------------------||---------6---6-------------0----------|------0---8------------0-----------5-5---||--------------------------------------|------------9-(9)-(9)\---7b9==(7)r-------||--------------------------------------|-----------------------------------------||--------------------------------------|-----------------------------------------|
E5 G5 A5 G5 | | | | | | / / / / / /
|------------------------------------------------------------------||-----------5-5---5-5-----------5-5-----------5-5-----------5-7b9==||-7b9==(7)r-----6-----7b9==(7)r-----7b9==(7)r-----7b9==(7)r--------||------------------------------------------------------------------||------------------------------------------------------------------||------------------------------------------------------------------|
E5 G5/D A5 G5/D E5 G5/DA G5 | | | | | | | | | | | | / / / / / / / / / / / /
|-----7--------------7-----------7-----------7-7---------|-5--------------------------------||-(7)---7r-7b9==(7)r---7b9==(7)r---7b9==(7)r---7b9==(7)r-|---5-8-7-5---5-5-(5)\-------------||--------------------------------------------------------|-----------6----------0-14b16=====||--------------------------------------------------------|----------------------0-----------||--------------------------------------------------------|----------------------------------||--------------------------------------------------------|----------------------------------|
| | | | / / / /
|----------------------------------------------------||-------15---------15----15---------15--(15)---------||-(14)r----14b16==(14)r--14-14b16==(14)-(14)r(14)-12-||----------------------------------------------------||----------------------------------------------------||----------------------------------------------------|
D5 | | | | | | | | | | | / / / / / / / / / / /
~~~~~~~~|-------------------------15-|-15b16==(15)r------------------------------||-12-------------------------|--------------17p15-----15-(15)\-----------||--x-12----12-12-(12)s=4/----|--------------------16-----------------12--||-------14-------------------|---------------------------------10s14-----||----------------------------|-------------------------------------------||----------------------------|-------------------------------------------|
gr | | | | | | || / / / / / / //
~~~~~~~~~~~~~~~|--------------------------------------------------------|||--------------15----------------------------------------|||-14b16==(14)r----14b16==(14)r-14b16==(14)-(14)-(14)r\---|||--------------------------------------------------------|||--------------------------------------------------------|||--------------------------------------------------------||
adual ritard Q=122 A5 | | | | | | / / / / / /
|----------|----------------------------|-----------------||----------|-----8-----------7----------|-----------------||-2--------|-7s9---9s7p5-6---7-5--------|-2---2-(2)--2----||-2--------|-------------7-7-7---7-(7)\-|-2---2-(2)--2----||-0--------|----------------------------|-0---0-(0)--0----||----------|----------------------------|-----------------|
| | | | | / / / / /
|--------------------------|---------------||-----8--------------------|---------------||-7s9---9s7-----7-5--------|-2---2-(2)--2--||-----------7-7-----7-(7)\-|-2---2-(2)--2--||--------------------------|-0---0-(0)--0--||--------------------------|---------------|
| | | | | / / / / /
|--------------------------|------------------------||-----8---------7----------|-----8------------------||-7s9---9s7-----7-5--------|-7s9---9s7-----7-5------||-----------7-7-7---7-(7)\-|-----------7-7-7---7----||--------------------------|-----------0-------0----||--------------------------|------------------------|
| | | | | | | | / / / / / / / /
~|----------------------||-----8----------------||-7s9---9s7-----7-5----||-----------7-7-7---7--||----------------------||----------------------|
| | | | | | | | | | | | | | | | / / / / / / / / / / / / / / / /
~|--------------------------------|----------------------|||-----8-------------8------------|-----8----------------|||-7s9---9s7-----7s9---9s7--------|-7s9---9s7-----7-5----|||-----------7-7-----------7-(7)\-|-----------7-7-7---7--|||--------------------------------|----------------------|||--------------------------------|----------------------||
Outro gradual accelerando Q=125 1.,2.,3. Gtrs I, II||-------2-(2)------|------2-(2)--------|------2-(2)------|-3----2-(2)--------||||o------3-(3)--3---|------3-(3)--------|------3-(3)------|-3----3-(3)-------o||||--2--2-2-(2)--2-0-|-7--0-2-(2)--2-2-2-|-2--2-2-(2)--0---|-0----2-(2)--2-----||||--2--2-0-(0)--0-0-|-5--0-0-(0)--2-2-2-|-2--2-0-(0)--0-5-|-0----0-(0)--2-2---||||o-0--0-0-(0)--0---|-5-----------0-----|-0--0-0-(0)----5-|------0-(0)----0--o||||------------------|-3-----------------|---------------3-|-3--3--------------||
4. A5 D5 Gtr II | | | | / / / /
Gtr I ~~~~~ ~~~~~~~~~~~~~~|------------------------------------|----------------------||---------10-------------10--(10)----|-(10)-----------------||-12b14==(12)r---12b14==(12)-(12)----|-(12)r------------0---||------------------------------------|----------x-----x-0---||------------------------------------|------------14\-----0-||------------------------------------|--------------------0-|
A5 D5 | | | | / / / /
~~~~~ ~~~~~~~~~|-------------------------------------|--------------------------------------------------||---------10-------------10--(10)-----|----13----15-14b16==(14)-(14)b17==(14)-(14)r\-0---||-12b14==(12)r---12b14==(12)-(12)r----|-14----14-------------------------------------0-0-||-------------------------------------|------------------------------------------------0-||-------------------------------------|--------------------------------------------------||-------------------------------------|--------------------------------------------------|
Free Time Q=122 A5 A D5 | | | | | / o / / /
~~~~~ ~~~~~~~|---------------x---------10-----------------------|-----------------------:|---------10----x-13b15==(13)-(13)r--13b15==(13)r--|-13b15===(13)--(13)----:|-12b14==(12)r-------------------------------------|-----------------------:|--------------------------------------------------|-----------------------:|--------------------------------------------------|-----------------------:|--------------------------------------------------|-----------------------:
| | / /
~~~~~~~ ~~~~|-----------10-10-10s15----:--------------------------------------------------------------:|-(13)r--10----------------:---13b15===(13)-(13)r-13b15==(13)r-13b15==(13)r-13b15==(13)---:|--------------------------:--------------------------------------------------------------:|--------------------------:--------------------------------------------------------------:|--------------------------:--------------------------------------------------------------:|--------------------------:--------------------------------------------------------------:
A5 | | | | | / / / / /
~~~~~|----------------------------------------------------------------------------:|-(13)r-13b15==(13)r-15b17==(15)r--15b17==(15)r--15b17==(15)r--15b17==(15)r--:|----------------------------------------------------------------------------:|----------------------------------------------------------------------------:|----------------------------------------------------------------------------:|----------------------------------------------------------------------------:
| | | || / / / //
~~~~ PM--| ~~~~|----------------5-----------------------:-----------------------------------*||-8b10==(8)r---8---8p7p5---7p5---7-------:-0---------------------------------*||------------------------0-7p5-x-7p5h7p5-:-0-2p0-----------------------------*||------------------------------3---------:-------2p0---5b7==(5)-(5)r---------*||----------------------------------------:-----------3-----------------------*||----------------------------------------:---------------------------xs=0----*|
*************************************************************************************** * Generated using Power Tab Editor by Brad Larsen - http://powertab.guitarnetwork.org * ***************************************************************************************
Tap to rate this tab
 
# A B C D E F G H I J K L M N O P Q R S T U V W X Y Z