Ac Dc - Let Me Put My Love Into You tab

AC/DC
Let Me Put My Love Into You
Tuning: Standard
Transcribed by Soch Hean

Intro Riff:|-------------------------------------||-------------------------------------||---------------------------------2---||-5-4-5----5-4-5----5-4-5----4----2---||-7-5-7----7-5-7----7-5-7----5----0---||-------------------------------------|(x2)
|------------------------------------------------------||-8--7--8~------8--7--8~------8--7--8~-----7~----10~---||-9--7--9~------9--7--9~------9--7--9~-----7~-----9~---||------------------------------------------------------||------------------------------------------------------||-----------0-------------0-------------0------0-------| (x2)
Verse:|-------------------------------------||-------------------------------------||---------------------------------2---||-5-4-5----5-4-5----5-4-5----4----2---||-7-5-7----7-5-7----7-5-7----5----0---||-------------------------------------| (x2)
|------------------------------------------------------||-8--7--8~------8--7--8~------8--7--8~-----7~----10~---||-9--7--9~------9--7--9~------9--7--9~-----7~-----9~---||------------------------------------------------------||------------------------------------------------------||-----------0-------------0-------------0------0-------| (x2)
Bridge:|-------------------------------------------------||-----0-3p0------------------0-3p0----------------||-0-2-------0------------0-2-------0-2-------2----||-------------2-------2--------------2--2-2--2----||-------------2--2-2--2--------------0--0-0--0----||-------------0--0-0--0---------------------------| PM|---| PM|---|
|-----------------------------------------------------------||-----0-3p0------------------0-3p0--------------------------||-0-2-------0------------0-2-------0-2-2-----2----2-2-------||-------------2-------2--------------2-2-----2----2-2--2----||-------------2--2-2--2--------------0-0-----0----0-0--2----||-------------0--0-0--0-------------------3------------0----| PM|---|
Chorus:|---------------------------------------------------------------||-3-------------------------3--------------------------3--------||-2-----2-------------------2-----2--------------------2----2---||-0-----2----2----2--2--2---0-----2----2----2--2-2-2---0----2---||-------0----2----2--2--2---------0----2----2--2-2-2--------0---||------------0----0--0--0--------------0----0--0-0-0------------|
|------------------------------------||----------------3-------------------||----------------2------2------------||-2---2--2-2-2---0------2------2-----||-2---2--2-2-2----------0------2-----||-0---0--0-0-0-----------------0-----|
Guitar Riff: (1:43)|------------------------------------------------------||-8--7--8~------8--7--8~------8--7--8~-----7~----10~---||-9--7--9~------9--7--9~------9--7--9~-----7~-----9~---||------------------------------------------------------||------------------------------------------------------||-----------0-------------0-------------0------0-------|
Verse 2:|------------------------------------------------------||-8--7--8~------8--7--8~------8--7--8~-----7~----10~---||-9--7--9~------9--7--9~------9--7--9~-----7~-----9~---||------------------------------------------------------||------------------------------------------------------||-----------0-------------0-------------0------0-------| (x2)
Bridge:|-------------------------------------------------||-----0-3p0------------------0-3p0----------------||-0-2-------0------------0-2-------0-2-------2----||-------------2-------2--------------2--2-2--2----||-------------2--2-2--2--------------0--0-0--0----||-------------0--0-0--0---------------------------| PM|---| PM|---|
|-----------------------------------------------------------||-----0-3p0------------------0-3p0--------------------------||-0-2-------0------------0-2-------0-2-2-----2----2-2-------||-------------2-------2--------------2-2-----2----2-2--2----||-------------2--2-2--2--------------0-0-----0----0-0--2----||-------------0--0-0--0-------------------3------------0----| PM|---|
Chorus:|---------------------------------------------------------------||-3-------------------------3--------------------------3--------||-2-----2-------------------2-----2--------------------2----2---||-0-----2----2----2--2--2---0-----2----2----2--2-2-2---0----2---||-------0----2----2--2--2---------0----2----2--2-2-2--------0---||------------0----0--0--0--------------0----0--0-0-0------------|
|------------------------------------||----------------3-------------------||----------------2------2------------||-2---2--2-2-2---0------2------2-----||-2---2--2-2-2----------0------2-----||-0---0--0-0-0-----------------0-----|
Guitar Solo: (2:38)|-----------------------------------------------------------------------||-----------------------------------------------------15------15~-------||-----------------------------------------------------14b16=--14pb15r~--||-14--14--14--14--14--14--14--14--14--14--14--14--14--------------------||-----------------------------------------------------------------------||-----------------------------------------------------------------------|
|----12----------------------------------------------------------------||-12----15-12----------------------------------------------------------||-------------14b16-14~~--12------12-------------------9~~--7-7b7.5----||------------------------------14----14~--12\-------/9-----------------||----------------------------------------------------------------------||----------------------------------------------------------------------|
|--------------------------------------------------------------||--------------------------------------------------------------||-6b==7~~----7---9~--------------------14b16=--12-14-----------||--------------------7-9--7s5-7~\---14---------------14~\------||------------------------------------x-------------------------||--------------------------------------------------------------|
|--------------------------------------------------------------||----13b=15------12b=14-------15-----15--15----15-15-----------||-12----------12--------------14b=16-----14b16----14b16~-------||--------------------------14----------------------------------||--------------------------------------------------------------||--------------------------------------------------------------|
|---------------------------------------------------------------------------||-------15-15-------15-15-------15-15-------15-15-------15-15--------15-15--||-14b16-------14b16-------14b16-------14b16-------14b16-------14pb16--------||---------------------------------------------------------------------------||---------------------------------------------------------------------------||---------------------------------------------------------------------------|
|----------------------------------------------||--------15-15-------15-15---------------------||-14pb16-------14b16-------14b16rp12-14--------||----------------------------------------14~---||----------------------------------------------||----------------------------------------------|
|--------------------------------------------------------------------||-------15---------------------------------------------15-15---------||-14b16----14pb16rp12-14----------12b12.5--------14b16----14b16--14~-||------------------------14-14-12----------14-12---------------------||--------------------------------------------------------------------||--------------------------------------------------------------------|
|-----------------------------------------------------||----17-----17~-----17~------17~------17~-------17~---||-16----16-------16----14s16----14s16-----14s16-------||-----------------------------------------------------||-----------------------------------------------------||-----------------------------------------------------|
|-----------------------19----------------------------------------||----------17-----19b21----19b21~~-----12-15b17~--12--------------||-16-16h18----16-------------------------------------12-14b16~----||-----------------------------------------------------------------||-----------------------------------------------------------------||-----------------------------------------------------------------|
|-----------------------------------------------------------||-----------------------------------------------------------||-12b14=---11~---9~---[7]~--6~---4~---2~---0---2b==2.5------||-----------------------------------------------------------||-----------------------------------------------------------||-----------------------------------------------------------|
[Chorus]
Play during chorus: (3:22)|-----------------------------------------------------||-----------------------------------------------------||-9~--7-9~\---------7h9-9-9-7h9-9-9-7h9-9-9--7-7h9~\--||-----------------------------------------------------||-----------------------------------------------------||-----------------------------------------------------|
(3:30)|------------------------------------------------||-15-------15----15----15----15----15----15------||-14b16=---14b16-14b16-14b16-14b16-14b16-14b16~~-||------------------------------------------------||------------------------------------------------||------------------------------------------------|
(3:35)|----------------------------------||-15b17====17=17=17=17=17-15b17~---||----------------------------------||----------------------------------||----------------------------------||----------------------------------|
(3:40)|-15b17=-12h15p12----12------------------------------||-----------------15----15-12------------------------||-----------------------------14b16rp12----14b16=~---||----------------------------------------------------||----------------------------------------------------||----------------------------------------------------|
|--------------------------x-14b15==r----||--17--17~\---15--17-17~-----------------||-------------14-------------------------||----------------------------------------||----------------------------------------||----------------------------------------|
(3:48)|-15b17==--15-12-----12\------||--------------x--15--x-------||--------------x--------------||-----------------------------||-----------------------------||-----------------------------|
(3:50)|----------------------------||-15b17~------15b17==17~-----||----------------------------||----------------------------||----------------------------||----------------------------|
Outro: Rhythm Ending(3:56)|---------------------------------------------------------------------||-----------------------------------------------------------------2---||-9--7--9------9--7--9------9--7---9-------7--------2-------------2---||-9--7--9------9--7--9------9--7---9-------7--------2-------------2---||-7--5--7------7--5--7------7--5---7-------5--------0-------------0---||----------0------------0---------------------------------------------|
Lead Guitar Plays this little riff at the end w/ the rhythm:|-----------------------------------------------------||-5--5--5-5p0-5p0-5p0-5p0-5p0-5p0-5p0-5p0-5p0--5~~----||-----------------------------------------------------||-----------------------------------------------------||-----------------------------------------------------||-----------------------------------------------------|
Legend: s - slide p - pulloff r - release pb - pre-bend h - hammeron ~ - vibrato PM - palm mute [#] - pinch harmonic
Tap to rate this tab
 
# A B C D E F G H I J K L M N O P Q R S T U V W X Y Z