Ac Dc - Nervous Shakedown tab

Tuning: Standard

--------------------------------------------------------|--------------------------------------------------------|--6--4--2-----------------------------------------------|--4--2--0------5--5--2----------------------------------|---------------3--2--0------5--5--2---------------------|----------------------------3--2--0---------------------|
--------------------------------------------------------|--------------------------------3-3-3-------------------|--------------------2-2-2-0-0-0-2-2-2-2-----------------|--------------------2-2-2-0-0-0-0-0-0-2-----------------|-2-2--2-2-2-2-2-----0-0-0-x-x-x-------0-----------------|-0-3--0-0-0-3-0-----------3-3-3-------------------------|
-----------------------------------------------|-----------------------------------------------|--2----5---/7---------------------------------.|--2----5---/7--0-2--------0-2---------0-2-----.|--0----3---/5------3-0--------3-0---------3~~--|-----------------------------------------------|
----------------------------------|--------3----------------3--------|--4--2--2--2--4----4--2--2--2--4--|--4--2--0--2--4----4--2--0--2--4--|--2--0-----0--2----2--0-----0--2--|----------------------------------|
--------------------------------------------------------|--------------------------------3-3-3-------------------|--------------------2-2-2-0-0-0-2-2-2-2-----------------|--------------------2-2-2-0-0-0-0-0-0-2-----------------|-2-2--2-2-2-2-2-----0-0-0-x-x-x-------0-----------------|-0-3--0-0-0-3-0-----------3-3-3-------------------------|
-----------------------------------------------|-----------------------------------------------|--2----5---/7---------------------------------.|--2----5---/7--0-2--------0-2---------0-2-----.|--0----3---/5------3-0--------3-0---------3~~--|-----------------------------------------------|
----------------------------------|--------3----------------3--------|--4--2--2--2--4----4--2--2--2--4--|--4--2--0--2--4----4--2--0--2--4--|--2--0-----0--2----2--0-----0--2--|----------------------------------|
--------------------------------------------------------|--------------------------------3-3-3-------------------|--------------------2-2-2-0-0-0-2-2-2-2-----------------|--------------------2-2-2-0-0-0-0-0-0-2-----------------|-2-2--2-2-2-2-2-----0-0-0-x-x-x-------0-----------------|-0-3--0-0-0-3-0-----------3-3-3-------------------------|
Solo-----------------------------------|-----------------------------------|-----------------------------------|-------------------7b--------------|--7~~~~~~~~~~~~~~------------------|-----------------------------------|
-----------------------------------------------------------|---------0-2-3b~~~~-3p2p0----------------------------------|--2b--3-------------------3p2p0----------------------------|--------------------------------3p2p0----------------------|--------------------------------------3p2p0----------------|---------------------------------------------7/------0-----|
-----------------------------17-15----17-15----17-15------|---10-12-10-12-10-12-12~~~~--------17-------17-------17---|----------------------------------------------------------|----------------------------------------------------------|----------------------------------------------------------|----------------------------------------------------------|
--19--17-19-17-19-17-19-19~~~~-------------------------------------|--------------------------------15-17-13----15-17-13----15-17-13---|-----------------------------------------14---------14-------------|-------------------------------------------------------------------|-------------------------------------------------------------------|-------------------------------------------------------------------|
--17-17-15-----------------------17-----17-----17-----17-----------|-----------17-15-------------17b-----17b----17b----17b---17b-------|-----------------17-14/--------------------------------------------|-------------------------------------------------------------------|-------------------------------------------------------------------|-------------------------------------------------------------------|
--19-19~~~/--22b(24)-22-20----------------|---------------------------22-20----------|---------------------------------22-19/---|------------------------------------------|------------------------------------------|------------------------------------------|
Notation used: b-bend (24)-ghost note ~-vibrato /-slide p-pull off That's It
Tap to rate this tab
 
# A B C D E F G H I J K L M N O P Q R S T U V W X Y Z