Ac Dc - Put The Finger On You tab

Intro: |-----------------3--3--2--|-------------------------||--5--5--5--5--5--3--3--3--|----3--3--3--3--3--3--3--||--2--2--2--2--2-----------|----2--2--2--2--2--2--2--||--------------------------|-------------------------||--0--0--0--0--0--0--0--0--|----0--0--0--0--0--0--0--||--------------------------|-------------------------|
I put the finger... |-----------------3--3--2--|-------------------------|-----------------3--3--2--||--5--5--5--5--5--3--3--3--|----3--3--3--3--3--3--3--|--5--5--5--5--5--3--3--3--||--2--2--2--2--2-----------|----2--2--2--2--2--2--2--|--2--2--2--2--2-----------||--------------------------|-------------------------|--------------------------||--0--0--0--0--0--0--0--0--|----0--0--0--0--0--0--0--|--0--0--0--0--0--0--0--0--||--------------------------|-------------------------|--------------------------|
my hands... |-------------------------|---------------3--3--2--|--------------------||--3--3--3--3--3--3--3--|--5--5--5--5--5--3--3--3--|--3--3--3--3--3--3---||--2--2--2--2--2--2--2--|--2--2--2--2--2-------|------2--2--2--2--2--2--||-------------------------|---------------------|-------------------------||--0--0--0--0--0--0--0--|--0--0--0--0--0--0--0--0--|--0--0--0--0--0--0--0--||---------------------|--------------------------|-------------------------|
I can't stop... it's movin'... |-----------------3--3--2--|--------------------|-----------------3--3--2--||--5--5--5--5--5--3--3--3--|-3--3--3--3--3---3--|--5--5--5--5--5--3--3--3--||--2--2--2--2--2-----------|-2--2--2--2--2-2-2--|--2--2--2--2--2-----------||--------------------------|--------------------|--------------------------||--0--0--0--0--0--0--0--0--|-0--0--0--0-0-0--0--|--0--0--0--0--0--0--0--0--||--------------------------|--------------------|--------------------------|
I got fire... |--------------------|--------------------------|--------------------------||-3--3--3--3--3--3-3-|--4--4--5--5--5--4--4--5--|--5--5--5--5--5--5--5--5--||-2--2--2--2-2--2--2|--4--4--4--4--4--4--4--4--|--4--4--4--4--4--4--4--4--||--------------------|--4--4--6--6--6--4--4--6--|--6--6--6--6--6--6--6--6--||-0--0--0-0-0--0--0--|--------------------------|--------------------------||--------------------|--------------------------|--------------------------|
|--------------------|--------------------------|--------------------------||--------------------|--------------------------|--------------------------||--------------------|--4--------------------1--|--------------------------||--------------------|--4--------------------2--|--------------------------||--------------------|--2--------------------2--|--------------------------||--------------------|-----------------------0--|--------------------------|
baby ain't... |--------------------------|--------------------------||--4--4--5--5--5--4--4--5--|--5--5--5--5--5--5--5--5--||--4--4--4--4--4--4--4--4--|--4--4--4--4--4--4--4--4--||--4--4--6--6--6--4--4--6--|--6--6--6--6--6--6--6--6--||--------------------------|--------------------------||--------------------------|--------------------------|
|--------------------------|--------------------------||--------------------------|--------------------------||--4--------------------1--|--------------------------||--4--------------------2--|--------------------------||--2--------------------2--|--------------------------||-----------------------0--|--------------------------|
don't keep... |--------------------------|--------------------------||--4--4--5--5--5--4--4--5--|--5--5--5--5--5--5--5--5--||--4--4--4--4--4--4--4--4--|--4--4--4--4--4--4--4--4--||--4--4--6--6--6--4--4--6--|--6--6--6--6--6--6--6--6--||--------------------------|--------------------------||--------------------------|--------------------------|
|--------------------------|--------------------------||--------------------------|--------------------------||--4--------------------1--|--------------------------||--4--------------------2--|--------------------------||--2--------------------2--|--------------------------||-----------------------0--|--------------------------|
it's knocking... |--------------------------|-------------------------||--4--4--5--5--5--4--4--5--|--5--5--5--5--5--5--5----||--4--4--4--4--4--4--4--4--|--4--4--4--4--4--4--4----||--4--4--6--6--6--4--4--6--|--6--6--6--6--6--6--6----||--------------------------|-------------------------||--------------------------|-------------------------|
|--------------------------|-------------------------||--------------------------|-------------------------||--4--------------------1--|-------------------------||--4--------------------2--|-------------------------||--2--------------------2--|-------------------------||-----------------------0--|-------------------------|
chorus: I put the finger right on you |------------------------------|------------------------||--12----------12----10----14--|--14--14----12----------||--12--11--11--12----11----14--|--14--14----13----------||--12--12--12--12----12----14--|--14--14----14----------||------------------------------|------------------------||------------------------------|------------------------|
|------------------------------|------------------------||-------3-------------3--------|------------------------||---0---2-------0-----2--------|---2---2-----1----------||---0---0---0---0-----0--------|---2---2-----2----------||---2-----------2--------------|---0---0-----2----------||---3-----------3--------------|-----------0------------|
I put the finger right on you |------------------------------|------------------------||--12----------12----10----14--|--14--14----12----------||--12--11--11--12----11----14--|--14--14----13----------||--12--12--12--12----12----14--|--14--14----14----------||------------------------------|------------------------||------------------------------|------------------------|
|------------------------------|------------------------||-------3-------------3--------|------------------------||---0---2-------0-----2--------|---2---2-----1----------||---0---0---0---0-----0--------|---2---2-----2----------||---2-----------2--------------|---0---0-----2----------||---3-----------3--------------|-----------0------------|
you put your finger on me too |------------------------------|------------------------||--12----------12----10----14--|--14--14----12----------||--12--11--11--12----11----14--|--14--14----13----------||--12--12--12--12----12----14--|--14--14----14----------||------------------------------|------------------------||------------------------------|------------------------|
|------------------------------|------------------------||-------3-------------3--------|------------------------||---0---2-------0-----2--------|---2---2-----1----------||---0---0---0---0-----0--------|---2---2-----2----------||---2-----------2--------------|---0---0-----2----------||---3-----------3--------------|-----------0------------|
I put the finger I put the finger |------------------------------|------------------------------||--12----------12----10----10--|--12----------12----10----10--||--12--11--11--12----11----11--|--12--11--11--12----11----11--||--12--12--12--12----12----12--|--12--12--12--12----12----12--||------------------------------|------------------------------||------------------------------|------------------------------|
|------------------------------|------------------------------||-------3-------------3--------|-------3-------------3--------||---0---2-------0-----2--------|---0---2-------0-----2--------||---0---0---0---0-----0--------|---0---0---0---0-----0--------||---2-----------2--------------|---2-----------2--------------||---3-----------3--------------|---3-----------3--------------|
I put the finger I put the finger |------12----------------------|------12---------------------||--14--12------14----12----12--|--14--12------14----12-------||--14--13--13--14----13----13--|--14--13--13--14----13-------||--14------14--14----14----14--|--14------14--14----14-------||------------------------------|-----------------------------|
|------------------------------|-----------------------------||------------------------------|-----------------------------||---2-----------2--------------|---2-----------2-------------||---2---2---2---2-----2-----2--|---2---2---2---2-----2----2--||---0---2---2---0-----2-----2--|---0---2---2---0-----2----2--||-------0---0---------0-----0--|-------0---0---------0----0--|
go on with 2nd verse: |-----------------3--3--2--|-------------------------||--5--5--5--5--5--3--3--3--|----3--3--3--3--3--3--3--||--2--2--2--2--2-----------|----2--2--2--2--2--2--2--||--------------------------|-------------------------||--0--0--0--0--0--0--0--0--|----0--0--0--0--0--0--0--||--------------------------|-------------------------|
|--------------------------|-------------------------||-----------------------3--|-------------------------||--2--2--2--2--2--0--0--2--|----2--2--2--2--2--2--2--||--2--2--2--2--2--0--0--0--|----0--0--0--0--0--0--0--||--0--0--0--0--0--0--0--0--|----0--0--0--0--0--0--0--||--------------------------|-------------------------|
after solo: put it right on you put it |--3--2--------------|---------------------|--3--2--------------||--3--3--------------|---------------------|--3--3--------------||--2--2--------------|--2--2----1----------|--2--2--------------||--0--0--------------|--2--2----2----------|--0--0--------------||--0--0--------------|--0--0----2----------|--0--0--------------||--------------------|----------0----------|--------------------|
right on you want me too |---------------------|--3--2--------------|---------------------||---------------------|--3--3--------------|---------------------||--2--2----1----------|--2--2--------------|--2--2----1----------||--2--2----2----------|--0--0--------------|--2--2----2----------||--0--0----2----------|--0--0--------------|--0--0----2----------||----------0----------|--------------------|----------0----------|
|------------------------|------------------------|------------------------||-----3------------------|-----3------------------|------------------------||--0--2-----0----2----2--|--0--2-----0----2----2--|--2--1-----2------------||--0--0--0--0----0----0--|--0--0--0--0----0----0--|--2--2-----2----2----2--||--2--0--0--2----0----0--|--2--0--0--2----0----0--|--0--2--2--0----2----2--||--3--------3------------|--3--------3------------|-----0--0-------0----0--|
|-------------------------|-----------------------|------------------||-------------------------|---------------3----3--|------------------||--2--1-----2-------------|--2----2----2--0----2--|------------------||--2--2-----2----2--2--2--|--2----2----2--0----0--|------------------||--0--2--2--0----2--2--2--|--0----0----0--x----0--|------------------||-----0--0-------0--0--0--|---------------3-------|------------------|
|-----------------------|------------------||---------------3----3--|------------------||--2----2----2--0----2--|------------------||--2----2----2--0----0--|------------------||--0----0----0--x----0--|------------------||---------------3-------|------------------|
Tap to rate this tab
 
# A B C D E F G H I J K L M N O P Q R S T U V W X Y Z