Adele - Lovesong tab version 2

This is my first tabs, I hope it's correct for me it sounds right.
for any complaints or help or requests Add me on Facebook: Yaara Vazana
Lyrics on bottom.

CAPO 8:

---------------------------------------------------|----0---0-0-----0---0-0-----0---0-0-----0---0-0----|----0---0-0-----0---0-0-----0---0-0-----0---0-0----|--2-----------2-----------2-----------2------------|---------------------------------------------------|---------------------------------------------------|
Verse 1 :
---------------------------------------------------|----0---0-0-----0---0-0-----0---0-0----------------|----0---0-0-----0---0-0-----0---0-0-----0---0-0----| X12--2-------------------------------------4---4-4----|--------------------------3-----------2------------|---------------3-----------------------------------|
---------------------------------------------------|----0---0-0-----------------0---0-0-----0---0-0----|----0---0-0-----0---0-0-----0---0-0-----0---0-0----| X3----------------4---4-4---2------------------------|--3-----------2------------------------------------|--------------------------------------3------------|
-------------------------|----0---0-0--------------|----0---0-0-----0---0-0--|----------------4---4-4--|--3-----------2----------|-------------------------|
Verse 2:
---------------------------------------------------|----0---0-0-----0---0-0-----0---0-0----------------|----0---0-0-----0---0-0-----0---0-0-----0---0-0----| X6--2-------------------------------------4---4-4----|--------------------------3-----------2------------|---------------3-----------------------------------|
---------------------------------------------------|----0---0-0-----------------0---0-0-----0---0-0----|----0---0-0-----0---0-0-----0---0-0-----0---0-0----| X3----------------4---4-4---2------------------------|--3-----------2------------------------------------|--------------------------------------3------------|
-------------------------|----0---0-0--------------|----0---0-0-----0---0-0--|----------------4---4-4--|--3-----------2----------|-------------------------|
Bridge:
---------------------------------------------------|----0---0-0-----------------0---0-0-----0---0-0----|----0---0-0-----0---0-0-----0---0-0-----0---0-0----| X3----------------4---4-4---2------------------------|--3-----------2------------------------------------|--------------------------------------3------------|
-------------------------|----0---0-0--------------|----0---0-0-----0---0-0--|----------------4---4-4--|--3-----------2----------|-------------------------|
Ending...
---------------------------------------------------|----0---0-0-----0---0-0-----0---0-0----------------|----0---0-0-----0---0-0-----0---0-0-----0---0-0----| X4--2-------------------------------------4---4-4----|--------------------------3-----------2------------|---------------3-----------------------------------|
LYRICS: [Verse 1:] Whenever I'm alone with you You make me feel like I am home again Whenever I'm alone with you You make me feel like I am whole again Whenever I'm alone with you You make me feel like I am young again Whenever I'm alone with you You make me feel like I am fun again [Chorus:] However far away I will always love you However long I stay I will always love you Whatever words I say I will always love you I will always love you [Verse 2:] Whenever I'm alone with you You make me feel like I am free again Whenever I'm alone with you You make me feel like I am clean again [Chorus:] However far away I will always love you However long I stay I will always love you Whatever words I say I will always love you I will always love you [x2]
Tap to rate this tab
 
# A B C D E F G H I J K L M N O P Q R S T U V W X Y Z