Adelitas Way - Sick tab version 4

tuning: Drop c

guitar1D|--------------------------------------|A|-----10-----10-----10-----8-----8-----|F|-7-7----7-7----7-7----7-7---7-7-------|C|--------------------------------------|G|--------------------------------------|C|--------------------------------------|
guitar 2|---------------------------------------------||-3-3----------3-3----------------------------||-2-2----------2-2----------------------------||-0-0----------0-0----------------------------||-0-0----------0-0----------------------------||-0-0----------0-0----------------------------|
GUITAR 1 IN 3X TIME PLAY THIS-------------------\/
|------------------------------------|-----||------------------------------------|-----||-5/7-7-7/10-10-10/12-12-12\10-10-10-|-5---||------------------------------------|-X---||-3/5-5-5/8--8--8/-10-10-10\8--10-10-|-3---||------------------------------------|-----| x3
GUITAR 2 (USE PALM MUTE IN C -0 STRINGS)|---------------------------------------------------------------||---------------------------------------------------------------||---------------------------------------------------------------||-00-----00-------00-------x5h6p5-3-----------------------------||-00-----00-------00-------x5h6p5-3-----------------------------||-00-----00-------00-------x5h6p5-3-----------------------------|
Verse 1
|---------------------------------------------------------------||---------------------------------------------------------------||---------------------------------------------------------------||-0-0---xx-----0-0---xx-----0-0---xx6p5p0-6p5p3------0-0------xx||-0-0---xx-----0-0---xx-----0-0---xx6p5p0-6p5p3------0-0------xx||-0-0---xx-----0-0---xx-----0-0---xx6p5p0 6p5p3------0-0------xx|
|---------------------------------------------------------------||---------------------------------------------------------------||---------------------------------------------------------------||-0-0---xx-----0-0---xx-----0-0---xx6p5p0-6p5p3-----------------||-0-0---xx-----0-0---xx-----0-0---xx6p5p0-6p5p3-----------------||-0-0---xx-----0-0---xx-----0-0---xx6p5p0 6p5p3-----------------|
Chorus
|---------------------------------------------------------------||---------------------------------------------------------------||---------------------------------------------------------------||-00000000-33333333-88888888-55555555---------------------------||-00000000-33333333-88888888-55555555---------------------------||-00000000-33333333-88888888-55555555---------------------------| x2
|-----------------------------------------||-----------------------------------------||-5/7-7-7/10-10-10/12-12-12\10-10-10------||-----------------------------------------|3x|-3/5-5-5/8--8--8/-10-10-10\8--10-10------||-----------------------------------------| |---------------------------------------------------------------||---------------------------------------------------------------||---------------------------------------------------------------||-5~-------------x5h6p5-3---------------------------------------||-5~-------------x5h6p5-3---------------------------------------||-5~-------------x5h6p5-3---------------------------------------|
Verse 2
|---------------------------------------------------------------||---------------------------------------------------------------||---------------------------------------------------------------||-0-0---xx-----0-0---xx-----0-0---xx6p5p0-6p5p3------0-0------xx||-0-0---xx-----0-0---xx-----0-0---xx6p5p0-6p5p3------0-0------xx||-0-0---xx-----0-0---xx-----0-0---xx6p5p0 6p5p3------0-0------xx|
|---------------------------------------------------------------||---------------------------------------------------------------||---------------------------------------------------------------||-0-0---xx-----0-0---xx-----0-0---xx6p5p0-6p5p3-----------------||-0-0---xx-----0-0---xx-----0-0---xx6p5p0-6p5p3-----------------||-0-0---xx-----0-0---xx-----0-0---xx6p5p0 6p5p3-----------------|
|---------------------------------------------------------------||---------------------------------------------------------------||---------------------------------------------------------------||-5-5-5b-5b-5b-5b-5b-5b-----------------------------------------||-5-5-5b-5b-5b-5b-5b-5b-----------------------------------------||-5-5-5b-5b-5b-5b-5b-5b-----------------------------------------|pm . . . . . . Ascending bend WITH LIGHT PALM MUTE
Chorus
|---------------------------------------------------------------||---------------------------------------------------------------||---------------------------------------------------------------||-00000000-33333333-88888888-55555555---------------------------||-00000000-33333333-88888888-55555555---------------------------||-00000000-33333333-88888888-55555555---------------------------| x2
Bridge
|-------------------------------------------||-------------------------------------------||--5555/7777\5555/7777----------------------||-------------------------------------------||--3333/5555\3333/5555----------------------||-------------------------------------------| x8
|---------------------------------------------------------------||---------------------------------------------------------------||---------------------------------------------------------------||-----0-0-------------------------0-0-------------5~------------||-----0-0-------------------------0-0-------------5~------------||-----0-0-------------------------0-0-------------5~------------|
Chorus
|---------------------------------------------------------------||---------------------------------------------------------------||---------------------------------------------------------------||-00000000-33333333-88888888-55555555---------------------------||-00000000-33333333-88888888-55555555---------------------------||-00000000-33333333-88888888-55555555---------------------------|
|---------------------------------------------------------------||---------------------------------------------------------------||---------------------------------------------------------------||-00000000-33333333-88888888---5p3h5p3h5--5p3h5--5p3h5-5--------||-00000000-33333333-88888888---5p3h5p3h5--5p3h5--5p3h5-5--------||-00000000-33333333-88888888---5p3h5p3h5--5p3h5--5p3h5-5--------|
|---------------------------------------------------------------||---------------------------------------------------------------||---------------------------------------------------------------||-00000000-33333333-88888888-55555555---------------------------||-00000000-33333333-88888888-55555555---------------------------||-00000000-33333333-88888888-55555555---------------------------|
|---------------------------------------------------------------||---------------------------------------------------------------||---------------------------------------------------------------||-00000000-33333333-88888888---5p3h5p3h5-5--5p3h5p3h5-5---------||-00000000-33333333-88888888---5p3h5p3h5-5--5p3h5p3h5-5---------||-00000000-33333333-88888888---5p3h5p3h5-5--5p3h5p3h5-5---------|
OutroGUITAR 1|-----------------------------------------||-----------------------------------------||-5/7-7-7/10-10-10/12-12-12\10-10-10------||-----------------------------------------|3x|-3/5-5-5/8--8--8/-10-10-10\8--10-10------||-----------------------------------------|
GUITAR 2|---------------------------------------------------------------||---------------------------------------------------------------||---------------------------------------------------------------||-5~-----------x5h6p5-3--00------------------------------0-0----||-5~-----------x5h6p5-3--00------------------------------0-0----||-5~-----------x5h6p5-3--00------------------------------0-0----|
legend ~=vibrato p=pull off /=slide pm .=palm mute X=dead note
Tap to rate this tab
 
# A B C D E F G H I J K L M N O P Q R S T U V W X Y Z