Adrien Le Roy - Passemeze Et Branle De Poictou tab

Passemeze et Branle de Poictou - Adrien Le Roy (1520-1598)
----------------------------------------------------------

From: "Jan Tomaszewski" 
Date: Tue, 10 Jun 2003 19:22:45 +0200

I decided to send in this tab and midi, because I think that this great
composition should be spread. I think that "passemeze" is a kind of
salterello and "branle" is another dance.
It's from the album "Night In Spain Garden" - played by Narciso Yepes.

If you're interested in Le Roy's compositions, please contact me.

Key: G minor
                                                      
E||--------------------------------------------------|B||---4-------3--4-------3----------3--4h3h4---3--1--|G||*--5----------5----------5----------5-------------|D||*-------5----------5----------5-------------3-----|A||---3----------3----------3----------3-------------|E||--------------------------------------------------|
------------------------------------------1-----|--3--------------1-3--4--3-------1--3---4----3--|--3-------2--3-----------3----------------------|-------3-----------3----------3-----------------|--1----------1-----------1----------1-----1-----|------------------------------------------------|
-----------------1-3--1----------3--1-----------|--4-------3--4-----------4--------------4-3--1--|--5----------5-----0-----5----------------------|-------5----------------------5-----------3-----|--3----------3-----------3----------3-----------|------------------------------------------------|
------------------------------------------------|--3----------0---1-3--1--3-------1--3---0-1--3--|--4-------2--------------4----0-----------------|-------5----------------------------------------|------------------------------------------------|--3----------3-----------3----------3-----3-----|
-----------------1-3--1----------6--5---3-1-----|--4-------3--4-----------4-------------------4--|--5----------5-----0-----5----------------------|-------5----------------------5-----------3-----|--3----------3-----------3----------3-----------|------------------------------------------------|
------------------------------------------1-----|--3--------------1-3--4--3-------1--3---4----3--|--3-------2--3-----------3----------------------|-------3-----------3----------3-----------------|--1----------1-----------1----------1-----1-----|------------------------------------------------|
-----------------------------------------------------|--4-----4-----4-----4--------3--1--------1-----------|--5-----5-----5-----5-----0--4--------------0--4p2h4-|-----------0-----------3-----------1--3--------------|------3-------6---3-6--------------------------------|-----------------------------------------------------|
-----3--------0---1-3--1--3--------3----------||-------------------------|-----5-----3--------------5--------5----------||---4-------3--4-------3--|-----5--------0-----0-----5--------5----0----*||*--5----------5----------|--------5------------------------------------*||*-------5----------5-----|--3-----------3-----------3-------------------||---3----------3----------|----------------------------------------------||-------------------------|
--------------------1-------|-------------------------|----------3--4--3-4---4-3-1-|--3--------------1-3--4--|--5----------5--------------|--3-------2--3-----------|-------5--------------------|-------3-----------3-----|--3----------3--------------|--1----------1-----------|----------------------------|-------------------------|
-------------------------1---|-----------------1-3--1--|--3----------------1-3-4---3-|--4-------3--4-----------|--3-------2----2-3-----------|--5----------------0-----|-------3---------------------|-------5-----------------|--1----------1---------------|--3----------3-----------|-----------------------------|-------------------------|
---------1-3-4-3-4-3-1---1-------|-------------------------|--4--3-4---------------4---4-3-1-|--3----------0---1-3--1--|--5------------------------------|--4----0--2--------------|---------------------------------|-------------------------|--3------------------------------|-------------------------|---------------------------------|--3----------3-----------|
--------------------------|-----------------1-3--1--|--------0--1--3---0-1--3--|--4-------3--4-----------|--4---2-------------------|--5----------5-----0-----|--5-----------------------|-------5-----------------|--------------------------|--3----------3-----------|--3-----------3-----------|-------------------------|
---------1-3-5-6-8-6-5-3-1-------|-------------------------|--4--3-4-------------------4-3-1-|--3--------------1-3--4--|--5------------------------------|--3-------2--3-----------|---------------------------------|-------3-----------------|--3------------------------------|--1----------1-----------|---------------------------------|-------------------------|
-------------------------1---|---------1-3-4-3-4-3-1---1-------|--3----------------1-3-4---3-|--4--3-4---------------4---4-3-1-|--3-------2----2-3-----------|--5------------------------------|-------3---------------------|---------------------------------|--1----------1---------------|--3------------------------------|-----------------------------|---------------------------------|
----------------------------------|----------0---0-1-3-5-6-5-3-1-0---|------0-1-3-1-0-----0-1-0-1-0---0-|--1-0-1-3---3-------------------3-|----2-----------2-0-----------2---|----------------------------------|------------------0---------------|----------------------------------|----------------------------------|--3-------------------------------|--3---------------3---------------|----------------------------------|
--0--------0----------||--3----------------||--1--------1----------||-------------------||----------------0----*||--0----------------||---------------------*||-------------------||--3-------------------||-------------------||----------------------||--3----------------||
Tap to rate this tab
 
# A B C D E F G H I J K L M N O P Q R S T U V W X Y Z