Aerosmith - Combination tab

COMBINATION by AEROSMITH
ROCKS

Sick song by Aerosmith, written by Joe Perry couldn't believe it when I saw no text tabs of it.
Palm mutes are fairly obvious.

TUNING:
Eb Ab Db Gb Bb Ee
E flat tuning

 Intro
  Moderately Q=120

Gtr I|-----------------------|-------------|----------------------|-----------------||-----------------------|-------------|----------------------|-----------------||-----------------------|-------------|---------0---2-(2)----|-(2)-5--4--2-----||---------0\---2-(2)----|---5--4--2---|-------0-----2-(2)----|-(2)-5--5--4-----||-------0------2-(2)----|---5--5--4---|-0h4s5-----0----------|-----------------||-0h4s5------0----------|-------------|----------------------|-----------------|
|
| Gtr II|--------------0-(0)----|-------------|----------------------|-----------------||--------------0-(0)----|-------------|----------------------|-----------------||--------------x--------|-------------|---------0-0-2-(2)----|-----5--4--2--2--||--------------2-(2)----|---5--4--2---|-------0---0-2-(2)----|-----5--5--2-----||--------------x--------|---5--5--2---|-0-3-4-------0-(0)----|-(0)-------------||--------------0-(0)----|-0-----------|----------------------|-----------------|
|--------------------------|-------------||--------------------------|-------------||--------------------------|-------------||---------0\---2-(2)-2---2-|---5--4--2---||-------0------2-(2)-2---2-|---5--5--4---||-0h4s5------0---------0---|-0-----------|
|
|--------------0-(0)-------|-------------||--------------0-(0)-------|-------------||--------------x-----------|-------------||--------------2-(2)-------|---5--4--2---||--------------x-----------|---5--5--2---||--------------0-(0)-------|-0-----------|
|-------------------------|----------------||-------------------------|----------------||---------0---2-(2)-2---2-|-(2)-5--4--2----||-------0-----2-(2)-2---2-|-(2)-5--5--4----||-0h4s5-----0---------0---|----------------||-------------------------|----------------|
|
|-------------------------|----------------||-------------------------|----------------||---------0-0-2-(2)-------|-----5--4--2----||-------0---0-2-(2)-------|-----5--5--2----||-0-3-4-------0-(0)-------|-(0)------------||-------------------------|----------------|
|------------------------------|--------------||------------------------------|--------------||------------------------------|--------------||---------0\---2-(2)-2p0-(0)-2-|---5--4--2--2-||-------0------2-(2)-2p0-(0)-2-|---5--5--4----||-0h4s5------0-----------------|--------------|
|--------------0-(0)-----------|--------------||--------------0-(0)-----------|--------------||--------------x---------------|--------------||---------0--0-2-(2)-----------|---5--4--2----||-------0----0-x---------------|---5--5--2----||-0h4s5--------0-(0)-----------|-0------------|
Verse
|--------------------------|---------------||--------------------------|---------------||---------0\---2-(2)-2---2-|-----5--4--2---||-------0------2-(2)-2---2-|-----5--5--4---||-0h4s5------0---------0---|---------------||--------------------------|---------------|
|
|--------------------------|---------------||--------------------------|---------------||---------0--0-2-(2)-------|-----5--4--2---||-------0----0-2-(2)-------|-----5--5--2---||-0-3-4--------0-(0)-------|-(0)-----------||--------------------------|---------------|
|--------------------------|----------------||--------------------------|----------------||---------0---2-(2)--2---2-|-(2)-5--4--2----||-------0-----2-(2)--2---2-|-(2)-5--5--4----||-0h4s5-----0----------0---|----------------||--------------------------|----------------|
|
|--------------------------|----------------||--------------------------|----------------||---------0-0-2-(2)-^2-----|-----5--4--2----||-------0---0-2-(2)-^2-----|-----5--5--2----||-0-3-4-------0-(0)-^0-----|--0-------------||--------------------------|----------------|
|--------------------------|---------------||--------------------------|---------------||---------0\---2-(2)-----2-|-(2)-5--4--2---||-------0------2-(2)-----2-|-(2)-5--5--4---||-0h4s5------0---------0---|---------------||--------------------------|---------------|
|
|--------------------------|---------------||--------------------------|---------------||---------0--0-2-(2)-2-----|-----5--4--2---||-------0----0-2-(2)-------|-----5--5--2---||-0-3-4--------0-(0)-------|-(0)-----------||--------------------------|---------------|
|-------------------------|------------------||-------------------------|------------------||---------0---2-(2)-2---2-|-(2)-5--4--2--2---||-------0-----2-(2)-2---0-|-(0)-5--5--4--4---||-0h4s5-----0---------0---|------------------||-------------------------|------------------|
|
|-------------------------|------------------||-------------------------|------------------||---------0-0-2-(2)-2-----|-----5--4--2------||-------0---0-2-(2)-------|-----5--5--2------||-0-3-4-------0-(0)-------|-(0)--------------||-------------------------|------------------|
Bridge
|---------------------|-----------------------||---------------------|-----------------------||---7s9-7-------------|-----------------------||---xsx-x---7s9-7-5---|-----------------------||---5s7-5p0-xsx-x-x---|-----7-----5---4-------||-0---------5s7-5-3p0-|-(0)---0-0---0---3b3.5p|
|
|---------------------|-----------------------||---------------------|-----------------------||---------------------|-----------------------||---7s9-7-------------|-----------------------||---5s7-5p0-7s9-7-5---|-----7-----5---4-------||-----------5s7-5-3-0-|-(0)---0-0---0---3b3.5p|
|---------------------|-------------------------||---------------------|-------------------------||---7s9-7-------------|-------------------------||---xsx-x---7s9-7-5---|-------------0-----------||---5s7-5p0-xsx-x-x---|-----7-----5---4---------||-0---------5s7-5-3p0-|-(0)---0-0-------3b3.5p==|
|
|---------------------|-------------------------||---------------------|-------------------------||---------------------|-------------------------||---7s9-7-------------|-------------------------||---5s7-5p0-7s9-7-5---|-----7-----5---4---------||-0---------5s7-5-3-0-|-(0)---0-0---0---3b3.5p==|
|---------------------|-----------------------||---------------------|-----------------------||---7s9-7-------------|-----------------------||---xsx-x---7s9-7-5---|-----------------------||---5s7-5p0-xsx-x-x---|-----7-----5---4-------||-0---------5s7-5-3p0-|--0----0-0---0---3b3.5p|
| |
|---------------------|-----------------------||---------------------|-----------------------||---------------------|-----------------------||---7s9-7-------------|-----------------------||---5s7-5p0-7s9-7-5---|-----7-----5---4-------||-0---------5s7-5-3-0-|-(0)---0-0---0---3b3.5p|
|---------------------|-----------------------||---------------------|-----------------------||---7s9-7-------------|-----------------------||---xsx-x---7s9-7-5---|-----------------------||---5s7-5p0-xsx-x-x---|-----7-----5---7-------||-0---------5s7-5-3p0-|-(0)---0-0---0---------|
| |
|---------------------|-----------------------||---------------------|-----------------------||---------------------|-----------------------||---7s9-7-------------|-----------------------||---5s7-5p0-7s9-7-5---|-----7-----5-----------||-0---------5s7-5-3-0-|-(0)---0-0---0-3b3.5---|
Chorus
|-----------------------|-----------------------||-----------------------|-----------------------||---------0\---7-(7)----|---------0\---5-(5)----||-------0------7-(7)----|-------0------5-(5)----||-0h4s5------0----------|-0h4s5------0----------||-----------------------|-----------------------|
|
|-----------------------|-----------------------||-----------------------|-----------------------||---------0--0-7-(7)----|---------0--0-5-(5)----||-------0----0-7-(7)----|-------0----0-5-(5)----||-0-3-4-----------------|-0-3-4-----------------||-----------------------|-----------------------|
|-----------------------------|-----------------------||-----------------------------|-----------------------||---------0\---4-(4)--(4)p=0--|---------0\---2-(2)----||-------0------5-(5)--(5)-(5)-|-------0------2-(2)----||-0h4s5------0----------------|-0h4s5------0----------||-----------------------------|-----------------------|
|
|-----------------------------|-----------------------||-----------------------------|-----------------------||---------0--0-0-(0)----------|---------0--0-2-(2)----||-------0----0-0-(0)----------|-------0----0-2-(2)----||-0-3-4-----------------------|-0-3-4-----------------||-----------------------------|-----------------------|
|-----------------------|-----------------------||-----------------------|-----------------------||---------0\---7-(7)----|---------0\---5-(5)----||-------0------7-(7)----|-------0------5-(5)----||-0h4s5------0----------|-0h4s5------0----------||-----------------------|-----------------------|
|
|-----------------------|-----------------------||-----------------------|-----------------------||---------0--0-7-(7)----|---------0--0-5-(5)----||-------0----0-7-(7)----|-------0----0-5-(5)----||-0-3-4-----------------|-0-3-4-----------------||-----------------------|-----------------------|
|-----------------------------|---------------------------||-----------------------------|---------------------------||---------0\---4-(4)--(4)p=0--|---------0\---2-----2--2---||-------0------5-(5)--(5)-(5)-|-------0------2-----2--2---||-0h4s5------0----------------|-0h4s5------0--------------||-----------------------------|---------------------------|
|
|-----------------------------|---------------------------||-----------------------------|---------------------------||---------0--0-0-(0)----------|---------0--0-2-(2)--------||-------0----0-0-(0)----------|-------0----0-2-(2)--------||-0-3-4-----------------------|-0-3-4---------------------||-----------------------------|---------------------------|
Bridge 2
|---------------------|-----------------------||---------------------|-----------------------||---7s9-7-------------|-----------------------||---xsx-x---7s9-7-5---|-----------------------||---5s7-5p0-xsx-x-x---|-----7-----5---4-------||-0---------5s7-5-3p0-|-(0)---0-0---0---3b3.5p|
| |
|---------------------|-----------------------||---------------------|-----------------------||---------------------|-----------------------||---7s9-7-------------|-----------------------||---5s7-5p0-7s9-7-5---|-----7-----5---4-------||-----------5s7-5-3-0-|-(0)---0-0---0---3b3.5p|
|---------------------|-------------------------||---------------------|-------------------------||---7s9-7-------------|-------------------------||---xsx-x---7s9-7-5---|-------------0-----------||---5s7-5p0-xsx-x-x---|-----7-----5---4---------||-0---------5s7-5-3p0-|-(0)---0-0-------3b3.5p==|
| |
|---------------------|-------------------------||---------------------|-------------------------||---------------------|-------------------------||---7s9-7-------------|-------------------------||---5s7-5p0-7s9-7-5---|-----7-----5---4---------||-0---------5s7-5-3-0-|-(0)---0-0---0---3b3.5p==|
|---------------------|-----------------------||---------------------|-----------------------||---7s9-7-------------|-----------------------||---xsx-x---7s9-7-5---|-----------------------||---5s7-5p0-xsx-x-x---|-----7-----5---4-------||-0---------5s7-5-3p0-|--0----0-0---0---3b3.5p|
| |
|---------------------|-----------------------||---------------------|-----------------------||---------------------|-----------------------||---7s9-7-------------|-----------------------||---5s7-5p0-7s9-7-5---|-----7-----5---4-------||-0---------5s7-5-3-0-|-(0)---0-0---0---3b3.5p|
|---------------------|------------------------||---------------------|------------------------||---7s9-7-------------|------------------------||---xsx-x---7s9-7-5---|------------------------||---5s7-5p0-xsx-x-x---|-----7-----5---7--------||-0---------5s7-5-3p0-|-(0)---0-0---0----------|
|
| PM----||---------------------|------------------------||---------------------|------------------------||---------------------|------------------------||---7s9-7-------------|------------------------||---5s7-5p0-7s9-7-5---|------------------------||-0---------5s7-5-3-0-|-(0)-0-2p0-3p0-4b4.5p0--|
Chorus 2
|-----------------------|-----------------------||-----------------------|-----------------------||---------0\---7-(7)----|---------0\---5-(5)----||-------0------7-(7)----|-------0------5-(5)----||-0h4s5------0----------|-0h4s5------0----------||-----------------------|-----------------------|
|
|-----------------------|-----------------------||-----------------------|-----------------------||---------0--0-7-(7)----|---------0--0-5-(5)----||-------0----0-7-(7)----|-------0----0-5-(5)----||-0-3-4-----------------|-0-3-4-----------------||-----------------------|-----------------------|
|-----------------------------|-----------------------||-----------------------------|-----------------------||---------0\---4-(4)--(4)p=0--|---------0\---2-(2)----||-------0------5-(5)--(5)-(5)-|-------0------2-(2)----||-0h4s5------0----------------|-0h4s5------0----------||-----------------------------|-----------------------|
|
|-----------------------------|-----------------------||-----------------------------|-----------------------||---------0--0-0-(0)----------|---------0--0-2-(2)----||-------0----0-0-(0)----------|-------0----0-2-(2)----||-0-3-4-----------------------|-0-3-4-----------------||-----------------------------|-----------------------|
|-----------------------|-----------------------||-----------------------|-----------------------||---------0\---7-(7)----|---------0\---5-(5)----||-------0------7-(7)----|-------0------5-(5)----||-0h4s5------0----------|-0h4s5------0----------||-----------------------|-----------------------|
|
|-----------------------|-----------------------||-----------------------|-----------------------||---------0--0-7-(7)----|---------0--0-5-(5)----||-------0----0-7-(7)----|-------0----0-5-(5)----||-0-3-4-----------------|-0-3-4-----------------||-----------------------|-----------------------|
|-----------------------------|------------------------||-----------------------------|------------------------||---------0\---4-(4)--(4)p=0--|---------0\---2--2--2---||-------0------5-(5)--(5)-(5)-|-------0------2--2--2---||-0h4s5------0----------------|-0h4s5------0-----------||-----------------------------|------------------------|
|
|-----------------------------|------------------------||-----------------------------|------------------------||-----------------------------|------------------------||--guitar-2-does-nothing-here-|------------------------||-----------------------------|------------------------||-----------------------------|------------------------|
Guitar Solo Gtr III
~~~~|------------------------------------|----------------------------||------------------------------------|----------------------------||---19---(19)-(19)--(19)-(19)(19)-19-|-(19)--(19)------(19)-10b12-||------------------------------------|----------------------------||------------------------------------|----------------------------||------------------------------------|----------------------------|
|
| Gtr I|------------------------------------|----------------------------||------------------------------------|----------------------------||-5--------7----2----------2p==0---2-|---5-----7--2--2---0---2----||-5--------7----2----------2p==0---2-|---5-----7--2--2---0---2----||------------------------------------|----------------------------||------------------------------------|----------------------------|
|-----------------------|-----------------------------||-----------------------|-----------------------------||-(10)------(10)\---5-7-|-7b9=====(7)-(7)---(7)r==(7)-||-----------------------|-----------------------------||-----------------------|-----------------------------||-----------------------|-----------------------------|
|
|-----------------------|-----------------------------||-----------------------|-----------------------------||---5---7-2-------2p0-2-|-5-----7--2------2--0--2-----||---5---7-2-------2p0-2-|-5-----7--2------2--0--2-----||-----------------------|-----------------------------||-----------------------|-----------------------------|
Gtr III ~|-5-------5-----------|----------------------------||-5-------5--7pb8-----|---7-------------7b7.5==(7)r||----7pb8----7pb9-----|---7p5-----------7b8====(7)r||---------------------|-7-----7---5h7p5------------||---------------------|----------------------------||---------------------|----------------------------|
|
| Gtr I|---------------------|----------------------------||---------------------|----------------------------||-5--7----2--2p===0-2-|-5-----7-2-----2-0-------2--||-5--7----2--2p===0-2-|-5-----7-2-----2-0-------2--||---------------------|----------------------------||---------------------|----------------------------|
|
| Gtr II|---------------------|----------------------------||---------------------|----------------------------||-5--7-------2--------|-5-----7-------2------------||-5--7-------2--------|-5-----7-------2------------||---------0---------0-|---------0---------------0--||---------------------|----------------------------|
|---------------5---7b8-(7)-5---|---------5---------------------||-(7)p5-----7h8---5-----------8p|=5-8pb10---8p5-7b8==(7)r(7)p5--||-(7)p5-7p5---------------------|---------------7b9==(7)r(7)p5--||-------------------------------|-------------------------------||-------------------------------|-------------------------------||-------------------------------|-------------------------------|
|
|-------------------------------|-------------------------------||-------------------------------|-------------------------------||--5----7---2-------2p===0--2---|-5-------7---2-------2---0--2--||--5----7---2-------2p===0--2---|-5-------7---2-------2---0--2--||-------------------------------|-------------------------------||-------------------------------|-------------------------------|
|
|-------------------------------|-------------------------------||-------------------------------|-------------------------------||--5----7-----------2-----------|-5-------7-----------2---------||--5----7-----------2-----------|-5-------7-----------2---------||-----------0---------------0---|-------------0--------------0--||-------------------------------|-------------------------------|
|-x-----------------------------------||-x---15-14s15---15-----15---14s15\---||-x---16-15s16---16-----16---15s16\---||-------------------------------------||-------------------------------------||-------------------------------------|
| |
|-------------------------------------||-------------------------------------||---7s=9--7---------------------------||---xs=x--x---------7s9----7--5-------||---5s=7--5p===0----xsx----x--x-------||-0-----------------5s7----5--3p====0-|
| |
|-------------------------------------||-------------------------------------||-------------------------------------||---7s=9--7---------------------------||---5s=7--5p===0----7s9----7--5-------||-------------------5s7----5--3-----0-|
|-----0-2p0---2---2s3-0h2p0-----|------------------------------------||-----0-2p0---2---2s3-0h2p0-----|-----15-14s15---15-----15---14-12---||-------------------------------|-----16-15s16---16-----16---14-12---||-------------------------------|------------------------------------||-------------------------------|------------------------------------||-------------------------------|------------------------------------|
| |
|-------------------------------|------------------------------------||-------------------------------|------------------------------------||-------------------------------|---7s=9--7--------------------------||-------------------------------|---xs=x--x---------7s9----7--5------||-----7---------5-----4---------|---5s=7--5p===0----xsx----x--x------||-(0)---0---0-------0-----3b3.5p|=0-----------------5s7----5--3p=0---|
| |
|-------------------------------|------------------------------------||-------------------------------|------------------------------------||-------------------------------|------------------------------------||-------------------------------|---7s=9--7--------------------------||-----7---------5-----4---------|---5s=7--5p===0----7s9----7--5------||-(0)---0---0-------0-----3b3.5p|=0-----------------5s7----5--3--0---|
~~~~~|------------------------------------------------------||-(12)\-----------------9-12p9-12b14==(12)r======(12)/-||-(12)\---------9h11h12--------------------------------||-------9h11h12----------------------------------------||------------------------------------------------------||------------------------------------------------------|
| |
|------------------------------------------------------||------------------------------------------------------||------------------------------------------------------||----------------------------0-------------------------||-------7---------------5---------------4--------------||--(0)--------0----0-----------------------3b3.5-------|
| |
|------------------------------------------------------||------------------------------------------------------||------------------------------------------------------||------------------------------------------------------||-------7---------------5---------------4--------------||---0---------0----0---------0-------------3b3.5-------|
|------------------------5-----------|-----------3--------------------------||-(17)---15-14\------------5---------|-------------3------------------------||--------16-15\0---4pb6======4r==(4)-|--0--2pb4======2r(2)-0h1---3s11-------||------------------------------------|-------------------------2------------||------------------------------------|--------------------------------------||------------------------------------|--------------------------------------|
| |
|------------------------------------|--------------------------------------||------------------------------------|--------------------------------------||------7s=9--7-----------------------|--------------------------------------||------xs=x--x---7s9-----7-5---------|--------------------------------------||------5s=7--5p0-xsx-----x-x---------|-----7---------------5-----4----------||---0------------5s7-----5-3p==0-----|--0--------0------0------0----3b3.5p==|
| |
|------------------------------------|--------------------------------------||------------------------------------|--------------------------------------||------------------------------------|--------------------------------------||------7s=9--7-----------------------|--------------------------------------||------5s=7--5p0-7s9-----7-5---------|-----7---------------5-----4----------||---0------------5s7-----5-3---0-----|-(0)-------0------0------0----3b3.5p==|
|-------------------15p12\-------------------||-----15-14s15-------------15-12-------------||-----16-15s16-------------------15s14p12-14-||--------------------------------------------||--------------------------------------------||--------------------------------------------|
| |
|--------------------------------------------||--------------------------------------------||---7s=9--7----------------------------------||---xs=x--x-------7s=9---------7-----5-------||---5s=7--5p===0--xs=x---------x-----x-------||-0---------------5s=7---------5-----3p====0-|
| |
|--------------------------------------------||--------------------------------------------||--------------------------------------------||---7s=9--7----------------------------------||---5s=7--5p===0--7s=9---------7-----5-------||-0---------------5s=7---------5-----3-----0-|
|---------------------------------------------------------------------------|||-14p=11-15p13p11-16p14p12-17p15p13-18-16p14-19p17p15-20p====18p16-21p19-17-|||---------------------------------------------------------------------------|||---------------------------------------------------------------------------|||---------------------------------------------------------------------------|||---------------------------------------------------------------------------||
| |
|---------------------------------------------------------------------------|||---------------------------------------------------------------------------|||---------------------------------------------------------------------------|||---------------------------------------------------------------------------|||---------7--------------------------5-----------------7--------------------|||-(0)--------------0--------0-----------------0-----------------------------||
|
| PM------| PM ~~~~~~|---------------------------------------------------------------------------|||---------------------------------------------------------------------------|||---------------------------------------------------------------------------|||---------------------------------------------------------------------------|||---------7--------------------------5--------------------------------------|||-(0)--------------0--------0-----------------0--------3b3.5----------------||
Out/Chorus kinda thing
>|-17--------------(17)----|-(17)--------------------||-17--------------(17)----|-(17)--------------------||-------------------------|-------------------------||-------------------------|-------------------------||-------------------------|-------------------------||-------------------------|-------------------------|
|
|-------------------------|-------------------------||-------------------------|-------------------------||----------0\---7--(7)----|-----------0\---5-(5)----||--------0------7--(7)----|---------0------5-(5)----||--0h4s5------0-----------|---0h4s5------0----------||-------------------------|-------------------------|
|
|-------------------------|-------------------------||-------------------------|-------------------------||----------0--0-7--(7)----|-----------0--0-5-(5)----||--------0----0-7--(7)----|---------0----0-5-(5)----||--0-3-4------------------|---0-3-4-----------------||-------------------------|-------------------------|
|-----------------------------|-----------------------||-----------------------------|-----------------------||-----------------------------|-----------------------||-----------------------------|-----------------------||-----------------------------|-----------------------||-----------------------------|-----------------------|
|
|-----------------------------|-----------------------||-----------------------------|-----------------------||---------0\---4-(4)--(4)p=0--|---------0\---2-(2)----||-------0------5-(5)--(5)-(5)-|-------0------2-(2)----||-0h4s5------0----------------|-0h4s5------0----------||-----------------------------|-----------------------|
|
|-----------------------------|-----------------------||-----------------------------|-----------------------||---------0--0-0-(0)----------|---------0--0-2-(2)----||-------0----0-0-(0)----------|-------0----0-2-(2)----||-0-3-4-----------------------|-0-3-4-----------------||-----------------------------|-----------------------|
|-----------------------|-----------------------||-----------------------|-----------------------||---------0\---7-(7)----|---------0\---5-(5)----||-------0------7-(7)----|-------0------5-(5)----||-0h4s5------0----------|-0h4s5------0----------||-----------------------|-----------------------|
|
|-----------------------|-----------------------||-----------------------|-----------------------||---------0--0-7-(7)----|---------0--0-5-(5)----||-------0----0-7-(7)----|-------0----0-5-(5)----||-0-3-4-----------------|-0-3-4-----------------||-----------------------|-----------------------|
|-----------------------------|--------------||-----------------------------|-8s7p5--------||---------0\---4-(4)--(4)p=0--|-8s7p5--------||-------0------5-(5)--(5)-(5)-|-------7-(7)--||-0h4s5------0----------------|--------------||-----------------------------|--------------|
|
|-----------------------------|--------------||-----------------------------|--------------||---------0--0-0-(0)----------|-------2-(2)--||-------0----0-0-(0)----------|-------2-(2)--||-0-3-4-----------------------|-0-3-4--------||-----------------------------|--------------|
Outro
|------------------------|---------------------------||-8s7p5-7--7-7p5----5--5-|---------------------------||-8s7p5-7--7-7p5----5--5-|-------4--4---------2-(2)--||----------------\7------|-7p5---5--5---------2-(2)--||------------------------|-----0--------0h3h4--------||------------------------|---------------------------|
|
|------------------------|---------------------------||------------------------|---------------------------||-------7--7--------5--5-|-------0--0---------2-(2)--||-------7--7--------5--5-|-------0--0---------2-(2)--||-0-3-4------0-3--4------|-0-3-4--------0-3-4--------||------------------------|---------------------------|
|------------------------|---------------------------||------------------------|---------------------------||--------7--7-------5--5-|-------0--0-------2-(2)-2--||--------7--7-------5--5-|-------0--0-------2-(2)-2--||-0-3-4------0-3-4-------|-0-3-4------0-3-4----------||------------------------|---------------------------|
|
|------------------------|---------------------------||------------------------|---------------------------||--------7--7-------5--5-|-------0--0-------2-(2)----||--------7--7-------5--5-|-------0--0-------2-(2)----||--0-3-4------0-3-4------|-0-3-4------0-3-4----------||------------------------|---------------------------|
Gtr III
|------------------------------|-------------------------------------------||------------------------------|-------------------------------------------||-2-------(2)----(2)-----------|-(2)--(2)----(2)--(2)-(2)--(2)-------(2)---||-2-------(2)----(2)-----------|-(2)--(2)----(2)--(2)-(2)--(2)-------(2)---||-0-------(0)----(0)-----------|-(0)--(0)----(0)--(0)-(0)--(0)-------(0)---||------------------------------|-------------------------------------------|
|
| Gtr II|------------------------------|-------------------------------------------||------------------------------|-------------------------------------------||-------7------7----------5--5-|--------------0--------0-----------2-(2)-2-||-------7------7----------5--5-|--------------0--------0-----------2-(2)-2-||-0-3-4-----------0---3-4------|--0----3---4----------------0--3-4---------||------------------------------|-------------------------------------------|
|
| Gtr III|------------------------------|-------------------------------------------||------------------------------|-------------------------------------------||-------7------7----------5--5-|--------------0--------0-----------2-(2)---||-------7------7----------5--5-|--------------0--------0-----------2-(2)---||-0-3-4-----------0---3-4------|--0----3---4----------------0--3-4---------||------------------------------|-------------------------------------------|
|---------------------------------------|----------------------------||---------------------------------------|----------------------------||-2-------(2)----(2)----(2)-------(2)---|----------------------------||-2-------(2)----(2)----(2)-------(2)---|----------------------------||-0-------(0)----(0)----(0)-------(0)---|-(0)------------------------||---------------------------------------|----------------------------|
|
|---------------------------------------|----------------------------||---------------------------------------|----------------------------||-------7------7----------------5-----5-|---------0--0-------2-(2)-2-||-------7------7----------------5-----5-|---------0--0-------2-(2)-2-||-0-3-4------------------0--3-4---------|--0--3-4------0-3-4---------||---------------------------------------|----------------------------|
|
|---------------------------------------|----------------------------||---------------------------------------|----------------------------||-------7------7----------------5-----5-|---------0--0-------2-(2)---||-------7------7----------------5-----5-|---------0--0-------2-(2)---||-0-3-4------------------0--3-4---------|--0--3-4------0-3-4---------||---------------------------------------|----------------------------|
|-----------------------------|-----------------------------------||-----------------------------|-----------------------------------||--------------4pb5===========|=(4)r======(4)---(4)-------(4)p(2)-||-----------------------------|-----------------------------------||-(0)-------------------------|-----------------------------------||-----------------------------|-----------------------------------|
|
|-----------------------------|-----------------------------------||-----------------------------|-----------------------------------||---------7--7-----------5--5-|---------0-----0---------2-(2)--2--||---------7--7-----------5--5-|---------0-----0---------2-(2)--2--||--0--3-4------0-----3-4------|--0--3-4----------0--3-4-----------||-----------------------------|-----------------------------------|
|
|-----------------------------|-----------------------------------||-----------------------------|-----------------------------------||---------7--7-----------5--5-|---------0-----0---------2-(2)-----||---------7--7-----------5--5-|---------0-----0---------2-(2)-----||--0--3-4------0-----3-4------|--0--3-4----------0--3-4-----------||-----------------------------|-----------------------------------|
|------------------------------------------------------------||------------------------------------------------------------||--2--------------(2)----------(2)--------------(2)----------||--2--------------(2)----------(2)--------------(2)----------||--0--------------(0)----------(0)--------------(0)----------||------------------------------------------------------------|
|
|------------------------------------------------------------||-11s===12-12-12-(12)-12-12-12-11s====12-12-12-(12)-12-12-12-||-11s===12-12-12-(12)-12-12-12-11s====12-12-12-(12)-12-12-12-||-11s===12-12-12-(12)-12-12-12-11s====12-12-12-(12)-12-12-12-||------------------------------------------------------------||------------------------------------------------------------|
|
|------------------------------------------------------------||------------------------------------------------------------||--------------7-------7---------------------5-------5-------||--------------7-------7---------------------5-------5-------||--0-----3--4-------------------0------3--4------------------||------------------------------------------------------------|
|-----------------------------------------------||-----------------------------------------------||-(2)-----------------------(2)----------(2)----||-(2)-----------------------(2)----------(2)----||-(0)-----------------------(0)----------(0)----||-----------------------------------------------|
|
|-----------------------------------------------||-11s12-12-12-(12)-12-12-12-11s12-12-14-(14)p0--||-11s12-12-12-(12)-12-12-12-11s12-12-14-(14)p0--||-11s12-12-12-(12)-12-12-12-11s12-12-14-(14)p0--||-----------------------------------------------||-----------------------------------------------|
|
|-----------------------------------------------||-----------------------------------------------||-----------0-------0-----------------2--(2)----||-----------0-------0-----------------2--(2)----||--0--3--4-------------------0--3--4------------||-----------------------------------------------|
|---------------------------------------||-12--------------(12)-----(12)-(12)----||-12--------------(12)-----(12)-(12)----||-12--------------(12)-----(12)-(12)----||---------------------------------------||---------------------------------------|
|
|---------------------------------------||---------------------------------------||------------7--7------------5--------5-||------------7--7------------5--------5-||--0-----3-4--------0--3-4--------------||---------------------------------------|
|
|---------------------------------------||---------------------------------------||------------7--7------------5--------5-||------------7--7------------5--------5-||--0-----3-4--------0--3-4--------------||---------------------------------------|
|-------------------------------------------------||-(12)-----(12)-(12)------------------------------||-(12)-----(12)-(12)------------------------------||-(12)-----(12)-(12)------------------------------||----------------------<7>-<7>----------(7)---(7)-||-------------------------------------------------|
|
|-------------------------------------------------||-------------------------------------------------||------------0-------0----------------2-(2)-2-----||------------0-------0----------------2-(2)-2-----||---0--3-4------------------0-----3-4-------------||-------------------------------------------------|
|
|-------------------------------------------------||-------------------------------------------------||------------0-------0----------------2-(2)-------||------------0-------0----------------2-(2)-------||---0--3-4------------------0-----3-4-------------||-------------------------------------------------|
|------------------------------------------------------------||------------------------------------------------------------||------------------------------------------------------------||-12----------(12)--------(12)-(12)---------(12)--------(12)-||------------------------------------------------------------||------------------------------------------------------------|
|
|------------------------------------------------------------||-11s12-12-12-(12)--12-12--12---11s12-12-12-(12)--12-12--12--||-11s12-12-12-(12)--12-12--12---11s12-12-12-(12)--12-12--12--||-11s12-12-12-(12)--12-12--12---11s12-12-12-(12)--12-12--12--||------------------------------------------------------------||------------------------------------------------------------|
|
|------------------------------------------------------------||------------------------------------------------------------||-----------7--------7--------------------5--------5---------||-----------7--------7--------------------5--------5---------||--0--3--4-----------------------0--3--4---------------------||------------------------------------------------------------|
~~~~~|----------------------------------------------||----------------5------------------------(5)--||----------------5------------------------(5)--||-(12)-----------------------------------------||----------------------------------------------||----------------------------------------------|
|
|----------------------------------------------||--11s12-12-12-(12)-12-12-12-11s12-12-14-(14)p=||--11s12-12-12-(12)-12-12-12-11s12-12-14-(14)p=||--11s12-12-12-(12)-12-12-12-11s12-12-14-(14)p=||----------------------------------------------||----------------------------------------------|
|
|----------------------------------------------||----------------------------------------------||------------0-------0-----------------2--(2)--||------------0-------0-----------------2--(2)--||---0--3--4-------------------0--3--4----------||----------------------------------------------|
~~~~~~~~~~~~~~~~~~~~~~~~~~~~~~~~~~~~~~~~~~~~~~~~~~~~|-----------------------------------------------------||--5--------------------------------------------------||--5--------------------------------------------------||-----------------------------------------------------||-----------------------------------------------------||-----------------------------------------------------|
|
|-----------------------------------------------------||-11s12-12-12-(12)-12-12-12-11s12-12-12-(12)-12-12-12-||-11s12-12-12-(12)-12-12-12-11s12-12-12-(12)-12-12-12-||-11s12-12-12-(12)-12-12-12-11s12-12-12-(12)-12-12-12-||-----------------------------------------------------||-----------------------------------------------------|
|
|-----------------------------------------------------||-----------------------------------------------------||-----------7-------7-----------------5-------5-------||-----------7-------7-----------------5-------5-------||--0--3--4-------------------0--3--4------------------||-----------------------------------------------------|
~~~~~|---------------------------------------------||-(5)-----------------------------------------||-(5)-----------------------------------------||---------------------------------------------||---------------------------------------------||---------------------------------------------|
|
|---------------------------------------------||-11s12-12-12-(12)-12-12-12-11s12-12-14-(14)p=||-11s12-12-12-(12)-12-12-12-11s12-12-14-(14)p=||-11s12-12-12-(12)-12-12-12-11s12-12-14-(14)p=||---------------------------------------------||---------------------------------------------|
|
|---------------------------------------------||---------------------------------------------||-----------0-------0-----------------2--(2)--||-----------0-------0-----------------2--(2)--||--0--3--4-------------------0--3--4----------||---------------------------------------------|
|------------------------------------------------------------||--0-----------(0)--------(0)--(0)---(0)------(0)-(0)--------||------------------------------------------------------------||------------------------------------------------------------||------------------------------------------------------------||------------------------------------------------------------|
|
|------------------------------------------------------------||-11s12-12-12-(12)--12-12-12---11s12-12---12-(12)-12---12-12-||-11s12-12-12-(12)--12-12-12---11s12-12---12-(12)-12---12-12-||-11s12-12-12-(12)--12-12-12---11s12-12---12-(12)-12---12-12-||------------------------------------------------------------||------------------------------------------------------------|
|
|------------------------------------------------------------||------------------------------------------------------------||-----------7--------7---------------------5-------5---------||-----------7--------7---------------------5-------5---------||--0--3--4----------------------0--3--4----------------------||------------------------------------------------------------|
|---------------------------------------------------------||-(0)--------(0)---(0)----(0)-----(0)------------(0)--(0)-||---------------------------------------------------------||---------------------------------------------------------||---------------------------------------------------------||---------------------------------------------------------|
|
|---------------------------------------------------------||-11s==12-12-12---(12)-12-12---12-11s==12-12-14-(14)p=====||-11s==12-12-12---(12)-12-12---12-11s==12-12-14-(14)p=====||-11s==12-12-12---(12)-12-12---12-11s==12-12-14-(14)p=====||---------------------------------------------------------||---------------------------------------------------------|
|
|---------------------------------------------------------||---------------------------------------------------------||-------------0---------0---------------------2--(2)------||-------------0---------0---------------------2--(2)------||--0----3--4-----------------------0----3--4--------------||---------------------------------------------------------|
|--------------------------------------------------------||--0-----------(0)-----(0)-------------------------------||--------------------------------------------------------||--------------------------------------------------------||------------------------------[0]-----------------------||--------------------------------------------------------|
|
|--------------------------------------------------------||-11s12-12-12-(12)--12-12---12-11s12-12-12-(12)-12-12-12-||-11s12-12-12-(12)--12-12---12-11s12-12-12-(12)-12-12-12-||-11s12-12-12-(12)--12-12---12-11s12-12-12-(12)-12-12-12-||--------------------------------------------------------||--------------------------------------------------------|
|
|--------------------------------------------------------||--------------------------------------------------------||-----------7--------7-------------------5-------5-------||-----------7--------7-------------------5-------5-------||--0--3--4----------------------0--3--4------------------||--------------------------------------------------------|
|-------------------------------------------------------||-------------------------------------------------------||--0-------(0)---(0)----(0)-----(0)------(0)---(0)-(0)--||--0-------(0)---(0)----(0)-----(0)------(0)---(0)-(0)--||-------------------------------------------------------||-------------------------------------------------------|
|
|-------------------------------------------------------||-11s12-12-12---(12)-12-12---12-11s12-12-14---(14)p=====||-11s12-12-12---(12)-12-12---12-11s12-12-14---(14)p=====||-11s12-12-12---(12)-12-12---12-11s12-12-14---(14)p=====||-------------------------------------------------------||-------------------------------------------------------|
|
|-------------------------------------------------------||-------------------------------------------------------||-----------0---------0-------------------2----(2)------||-----------0---------0-------------------2----(2)------||--0--3--4-----------------------0--3--4----------------||-------------------------------------------------------|
|-----------------------------------------------------||-----------------------------------------------------||-----------------------------------------------------||--2-----------(2)------------------------------------||--0-----------(0)------------------------------------||-----------------------------------------------------|
|
|-----------------------------------------------------||-11s12-12-12-(12)-12-12-12-11s12-12-12-(12)-12-12-12-||-11s12-12-12-(12)-12-12-12-11s12-12-12-(12)-12-12-12-||-11s12-12-12-(12)-12-12-12-11s12-12-12-(12)-12-12-12-||-----------------------------------------------------||-----------------------------------------------------|
|
|-----------------------------------------------------||-----------------------------------------------------||-----------7-------7-----------------5-------5-------||-----------7-------7-----------------5-------5-------||--0--3--4-------------------0--3--4------------------||-----------------------------------------------------|
|---------------------------------------------------------||---------------------------------------------------------||--7p=========5----(5)h====7------(7)p=5h==========7pb8===||---------------------------------------------------------||---------------------------------------------------------||---------------------------------------------------------|
|
|---------------------------------------------------------||-11s==12-12-12---(12)-12-12---12-11s=12---12-14-(14)p====||-11s==12-12-12---(12)-12-12---12-11s=12---12-14-(14)p====||-11s==12-12-12---(12)-12-12---12-11s=12---12-14-(14)p====||---------------------------------------------------------||---------------------------------------------------------|
|
|---------------------------------------------------------||---------------------------------------------------------||-------------0---------0----------------------2--(2)-----||-------------0---------0----------------------2--(2)-----||--0----3--4-----------------------0---3----4-------------||---------------------------------------------------------|
|------------------------------------------------------------||------------------------------------------------------------||-(7)r=================(7)----(7)p======(5)---(5)----(5)-----||------------------------------------------------------------||------------------------------------------------------------||------------------------------------------------------------|
|
|------------------------------------------------------------||-11s=12-12-12-(12)-12-12--12-11s=12-12-12---(12)-12-12---12-||-11s=12-12-12-(12)-12-12--12-11s=12-12-12---(12)-12-12---12-||-11s=12-12-12-(12)-12-12--12-11s=12-12-12---(12)-12-12---12-||------------------------------------------------------------||------------------------------------------------------------|
|
|------------------------------------------------------------||------------------------------------------------------------||------------7-------7-------------------5---------5---------||------------7-------7-------------------5---------5---------||--0---3--4--------------------0---3--4----------------------||------------------------------------------------------------|
|------------------------------------------------|--------------*||------------------------------------------------|--------------*||--7pb8-------------------------------------(7)--|-(7)\--x------*||------------------------------------------------|--------------*||------------------------------------------------|--------------*||------------------------------------------------|--------------*|
|
|------------------------------------------------|--------------*||-11s===12-12-12-(12)-12-12-12-11s12-12-14-(14)p=|==============*||-11s===12-12-12-(12)-12-12-12-11s12-12-14-(14)p=|==============*||-11s===12-12-12-(12)-12-12-12-11s12-12-14-(14)p=|==============*||------------------------------------------------|--------------*||------------------------------------------------|--------------*|
|
|------------------------------------------------|--------------*||------------------------------------------------|--------------*||--------------0-------0-----------------2--(2)--|--------------*||--------------0-------0-----------------2--(2)--|--------------*||--0-----3--4-------------------0--3--4----------|--------------*||------------------------------------------------|--------------*|
enjoy!
Tap to rate this tab
 
# A B C D E F G H I J K L M N O P Q R S T U V W X Y Z