Aerosmith - Amazing tab

Amazing                                     


                                                                       Aerosmith
Outro Solo
Just the solo 


                                                             
E||--------------------------|------------------------------|B||--------------------------|------------------------------|G||---------5-5-5---5/7b-10r-|---------------------5h7-7b---|D||--------------------------|-----------------5/7----------|A||--3-----------------------|----3-3-3--3-3-3--------------|E||--------------------------|------------------------------|
---------------------------------|--------------------------------|---------------------------------|--------------------------------|-------------------5-7-7b7r5-7h5-|-----5-5---5-5---5-5-3---3h2----|---------------5/7---------------|---7-----7-----7-------5-----3--|----3-3-3--3-3-------------------|--------------------------------|---------------------------------|--------------------------------|
---------------------------|--6------------------------|------------------------6b-|--8----6r----4---6b4-------|----5---5---5--5-5---------|---------------5-------5-5-|---------------------------|---------------------------|--3---3---3----------------|---------------------------|---------------------------|---------------------------|
--------------------------|--------------------------------------|----6b-----6r-4---6b6-4---|--------------------------------------|----------------5-------5-|-------------5-5/2------0h2h0-5-5---5-|--------------------------|----7h5--5h7--------------------------|--------------------------|--------------------3/5-----------3---|--------------------------|--------------------------------------|
--------6---8-----------------|---11b-8-----8-----8-----------------|----6b----6b--6b6b6-4---------|---------11b-------8-----------11/13-|--5-------------------5----5--|---------------10b---9---------10/12-|-------------------------7----|-----------------------10-10/7-------|------------------------------|-------------------------------------|------------------------------|-------------------------------------|
------------------------------------------------|--13-13-13----13-13-----13----13----13----13-11b|--12-12----12--------12----12----12----12-------|------------------------------------------------|------------------------------------------------|------------------------------------------------|
------12-12-12-14b12----12-8-8-8-10r-8----|---13-13-13----------13-13-8-8---------10-|---------------------12-------------------|------------------------------------------|------------------------------------------|------------------------------------------|
--10h8------8---------8------8----8----8---|-------8-11b8-10h8----8------8-11b8----8---|-------------------10---8-----------10b--8-|--------------------------10---------------|-------------------------------------------|-------------------------------------------|
--------------------------------------|---------------15r--12-10r-8----10r8----|--------------------------------------|--------15r-13---------------10------10-|-----8-8-10-10r-8h10-8-10b---8--------|---12r----------------------------------|--10----------------------------10-10-|----------------------------------------|--------------------------------------|----------------------------------------|--------------------------------------|----------------------------------------|
--10r-8----8-10r8----8h10h8----8h10h8----10h8----8-10h8----|--------10--------10--------10--------10------10-8------10-|-----------------------------------------------------------|-----------------------------------------------------------|-----------------------------------------------------------|-----------------------------------------------------------|
--8----------------------------------------------------|--8----------------------------------------------------|----10r8----8-----------8-10r-8----8-------------------|---------10---10h8-10-----------10---10-8----10h8----8h|------------------------------------------10------10---|-------------------------------------------------------|
------------------------------------------------|------------------------------------------------|--------------------------------------------5-7-|--10h8----8-----------------------------5h7-----|-------10---10-9-8h6h8h6---6---6h8h6------------|-------------------------8---8------------------|
------------------------------------|------8-----8-----8-----8----8-8-11-|----------------------8b8-7-6-5-----|--11r-8-11r---11r---11r-8-11b--8-11-|--7b-5-7---5-7r-5-7-5-------------5-|------------------------------------|---------7----------------------7---|------------------------------------|------------------------------------|------------------------------------|------------------------------------|------------------------------------|
-----------------------------8-----------|-------8----8----8----8----8-8----8-8----|--8----8-10b8-10b--10b--10b----10b----10b|----10-----------------------------------|-----------------------------------------|-----------------------------------------|
--8-----------------------8---------------------|--8----8---11b-8----------8-8h11h8----8h11h8----|----10b--8-10b-8-10r-8-10b---------11--------11-|------------------------------------------------|------------------------------------------------|------------------------------------------------|
--8------------------------------------------------------------|--8------------------------------------------------------------|----10b8-10b8-----8h10h8----10h8----8h10h8---------------------|---------------10--------10------10--------10h9h8----10h8----8-|--------------------------------------------------10------10---|---------------------------------------------------------------|
----------------------------------------------------|----------------------------------------------------|----------------------------------------------------|--10h8----------------------------------------------|-------10h9h8/6h8h6h8h6---8h6---6-8-6-8-6-8b6-8-6h8h|------------------------8-----8---------------------|
-------------------------------------------------------|---------------------------------------------8h11h8----|--------------------------------10h8----8-10b-------11-|----------------------8h10h8---------10----------------|--6---6-8-8h6-----6-8b-------10------------------------|----8---------8-6b-------------------------------------|
--------------------------11h8----11h8----11h8h11-11h8----------------------------11h8----11h8----11h8---------11------11-----------------8-8-----11h8----8h11h8-------11------11------10------------------------------10b-----11------10b------------------------------------------------------------------------------------------------------------------------------------------------------------------------------------------------------------------------------------------------------
-------------------------------------------------------------------|----------------8h11h8----8---------10-8----------------------8--8-|--11h10h8h10h11--------11---11-10h8-10-8-10h8----10h8----8-10b-----|----------------------------------------------10------10-----------|-------------------------------------------------------------------|-------------------------------------------------------------------|
---------------------------------------------------------|--8----10-8----------------------------------------------|----11-10-8-10b8h10h8----10h8----8-10b11-11/10h8h10h8----|----------------------10------10----------------------10-|---------------------------------------------------------|---------------------------------------------------------|
------------------------------12-11-10----8---------|------------------------------------------8---------|--8---------------------10h12-12-11----10---8b------|----10-10-10-10-10-10-8-----------------------10-10-|----------------------------------------------------|----------------------------------------------------|
---------------------11-12-12-11-10-10------------|-----------------------------------------------11b|----------------9h11-11-12-------------8b---------|---8h10-10-8b10--------------------------10-10----|--------------------------------------------------|--------------------------------------------------|
-----------8----------------------------------------|-----------8-11h8----8---------------------------11b|------8h11--------11---11h10h8h10h8----8-10b-10-----|------------------------------------10--------------|----------------------------------------------------|----------------------------------------------------|
----------------------------------------------|--11b11b11b11b11b11b11b11b11r--11r--11r--11r--|----------------------------------------------|----------------------------------------------|----------------------------------------------|----------------------------------------------|
--------------------------------------|---------------------------|--11r--11r-11r------------------------|---------------------------|-----------------------5--------------|--------------5h3----------|----------------0--2h5-5-5h7h5--------|--5h-7/-2------------------|--------------------------------6h7-x-|----------1h3--------------|--------------------------------------|---------------------------|
Hope you enjoy it, It took me forever to type it :P
Tap to rate this tab
 
# A B C D E F G H I J K L M N O P Q R S T U V W X Y Z