Aerosmith - Walk On Down tab

                              Walk On Down
                              By Aerosmith
                      Words and Music by Joe Perry




Intro: E5 N.C. (G) (D) ||--------------------|-------------------------------------||--------------------|-------------------------------------||*---9------9-----9--|---7----7--7--7--------7-----7-------||*---9------9-----9--|---7h9-----9-----7-----7--7--7-------||----7------7-----7--|-----------------7-h9-----9----------||-------0------0-----|-------------------------------------
E5 Verse: You wonder why -||---------------|-----||-----------------------------------||---------------|-----||----------------------------------*||---9-----------|-----||*-------------9------9------------*||---9-----------|-----||*-------------9------9-------------||---7-----------|-----||--------------7------7-------------||---0-----------|-----||------------------0-----0---------
you got holes in your shoes. ----|------------------------------------||--------||-----------|------------------------------------||--------||--------9--|--7-----7---7--7--------7-----7----*||--------||*-------9--|--7h-9------9-----7-----7--7--7----*||--------||*-------7--|------------------7h9------9-----9\-||--------||-----------|------------------------------------||--------||-------
It makes no sense, Don't try to -----------------------------------|-----------------------------------------------------------|----------------------------2------------------------------|-----0----------------------2------------------------------|-----0----------------------0---------------------------0--|--0--------------------------------------------------------|------------------------
figure it You gotta' walk on -------------------|------------------------------3----------------------------|------------------------------3-------------0-----0--------|------------------------------0-------------0-----0--------|-----------------------------------------2-----3------5\---|--------------------------------------------------------0--|----------------------------------------
down. Walk on down. -|------------------------|-------------------3--|-----------|--3---------------------|-------------------3--|--3--------|--2--2-----(2)p0--------|-------------------0--|--2--2-----|--0---------------2-----|----------------------|--0--------|------------------------|----------------------|-----------|---------------------0--|----------------------|----------
Walk on down. -------------0--|----------------3--|------------------------------------0--|----------------3--|--3-----------------------(2)p0--------|----------------0--|--2--2-----(2)-------------------2-----|-------------------|--0------------------------------------|-------------------|---------------------------------------|-------------------|-----------------------
When your shit out of luck there's just ---------|----------------------------|------------------------------|----------------------------|-------------------------(2)--|----------------------------|------------------------------|----------------------------|------------------------------|----------------------------|------------------------------|----------------------------|---------------------
one thing to do and that's Walk on down --------------------------|----------------3--|---------------------------------------|----------------3--|--3------------------------------------|----------------0--|--2--2---------------------------------|-------------------|--0------------------------------------|-------------------|---------------------------------------|-------------------|-------------
Walk on down Solo: ---|--0---------3--|------------------|-----0--|------------0--|--0---------3--|--3---------------|-----0--|---------------|------------0--|--2--2--(2)p0-----|--------|---------------|---------------|--0---------------|--------|---------------|---------------|------------------|--------|---------------|---------------|---------------0--|--3-----|------------
----|------------------------|------------------------------15--|--------------15--------|--15--15--15--15--15--15------14b-|--(14)--------14b-------|--14b--14b--14b--14b--14b--14b----|------------------------|----------------------------------|------------------------|----------------------------------|------------------------|------------------------------
------------------------------------------|-----------------15--15--15--15--15------------------------|-----------------14b-14b-14b-14b-14b-(14)--14--14--14--14--|--14p12----------------------------------------------------|---------14------------------------------------------------|-----------------------------------------------------------|-----------------
-----------------------------------15p12------|--12------------------------------12h15p12-----------------|--12--15-----14p12------12h14h15------------14---------14--|--------------------14-------------------------------------|-----------------------------------------------------------|-----------------------------------------------------------|-------------
-------~~~~~~---------|---------~~~----------------------------(15)--------12h15--|p14p12h14-----(14)p12------14p12---------------------------|-----------------------14----------------------------------|-----------------------------------------------------------|-----------------------------------------------------------|-------------------------------------
-----------------14--|--(14)h12------15p12------12-------------12--12h14h15------|-----------15---------15------12---------------------------|-----------------------------------------------------------|-----------------------------------------------------------|-----------------------------------------------------------|--------------------------------------
---------------12--|----------------------------------------h14p12-------------|------------------------------------------------14\12------|--12h14p12--14p12------12------12--------------------------|-------------------14------14------------------------------|-----------------------------------------------------------|----------------------------------------
---------------------~~~-----------------|-----------------------------------------------------------|-----------------------------------------------------------|--2-----(2)-------------------------h10-----------------0--|------------------14\12--10h12p10h12-----------------2-----|--------------------------------------------12\0--0--------|------------------
-------|--------~~~-----------~~~--|---------------|---------------|---------------------------|---------------|--------(2)p0--|-----2p0-----2-----(2)-----|--(2)p1--------|---------------|--2------------------------|---------------|---------------|---------------------------|---------------|---------------|---------------------------|---------------|--------
--------------|----------------------------~~~--|~~~----------------------|---------------------------------|-------------------2--2--|--------------------(2)--(2)-----|-----------2p0--2--------|---------------------------------|-------------------------|---------------------------------|-------------------------|---------------------------------|-----------
~~~~~~--|~~~~~~~~~-------|------------------------------------------|----------------|------------------------------------------|-----------(2)--|------------------------------------------|----------------|------------------------------------------|----------------|------------------------------------------|----------------|----------------------------------
Tap to rate this tab
 
# A B C D E F G H I J K L M N O P Q R S T U V W X Y Z