Afi - Veronica Sawyer Smokes tab

CRASH LOVE

Notes: Man, I love this song. Definitely my favorite from the album proper. 
It's a rather easy piece. Allot of the guitar is very light and hard to 
hear, allowing for the bass to have some nice face time, but I think I got 
most of it. Tell me whatcha think.

Tab Legend
h=hammer
p=pull off
/=slide up
\=slide down
x=dead note
(x#)=pick/strum # times
...=palm mute

Veronica Sawyer Smokes
by AFI

Tuning
|eb|
|Bb|
|Gb|
|Db|
|Ab|
|Eb|



Intro pt. 1|------------------|----------------------||------------------|----------------------||8-8-8----9-9------|9-9-9-----9-----9-----||x-x-x----x-x------|9-9-9-----9-----9-----||6-6-6(x3)7-7(x4)--|0-0-0(x4)-0(x3)-0(x2)-||0-0-0----0-0------|----------------------|
|---------4-----4-----4-----|---------7-----7-----7-----||---------4-----4-----4-----|---------8-----7-----7-----||---------4-----4-----4-----|---------8-----8-----8-----||6-6-6----6-----6-----6-----|9-9-9----9-----9-----9-----||6-6-6(x2)6(x2)-6(x3)-6(x2)-|9-9-9(x2)9(x2)-9(x3)-9(x2)-||4-4-4----4-----4-----4-----|7-7-7----7-----7-----7-----|
Intro pt. 2|-------------------|------------------------------||-------------------|------------------------------||8-8-8----9-11------|9-9-9----11-----11-----11-----||x-x-x----x--x------|9-9-9----11-----11-----11-----||6-6-6(x3)7--9(x4)--|0-0-0(x2)-0(x2)--0(x3)--0(x2)-||0-0-0----0--0------|------------------------------|
|------------4--------------|---------------------------||---4-------------4---------|--7-7----7-----7-----7-----||------4---------------4----|--8-8----8-----8-----8-----||6--------6-----------------|9-9-9----9-----9-----9-----||---------------------------|9-9-9(x2)9(x2)-9(x3)-9(x2)-||---------------------------|7-7-7----7-----7-----7-----|
Verse 1|---------------------|----------------------|-------4---4--4-|----------------------------||-------------------9-|----------------------|---4--4---4--4--|----------------------12----||---8(x4)--9-9(x3)-9--|9-9-9(x2)-9-9-9-9(x2)-|--4--4---4------|-----8(x4)11(x2)11(x2)11----||-----------------9---|---------9---9--------|6---------------|9(x4)------------9-----9(x4)||---------------------|----------------------|----------------|----------------------------||---------------------|----------------------|----------------|----------------------------|
|------------------------------|-------------------------||---8(x4)--9-9/11-11(x2)/13-13-|---9--8-11(x2)-11(x4)/13-||------------------------------|-------------------------||------------------------------|-------------------------||------------------------------|-------------------------||------------------------------|-------------------------|
|-------------------------------|----------||9--9--11--11(x2)12--12--11--11-|----------||9--9---9---9-----9---9---9---9-|.....-----||-------------------------------|9(x8)9(x8)||-------------------------------|9----9----||-------------------------------|7----7----|
Pre-Chorus|-------------------|-------------------|-------------------|------||--------5----------|--------7----------|--------5----------|------||--------6----------|--------8----------|--------6----------|------||7-7-----7-----7----|9-9-----9-----9----|7-7-----7-----7----|9-----||7-7(x2)-7(x2)-7(x8)|9-9(x2)-9(x2)-9(x8)|7-7(x2)-7(x2)-7(x8)|9(x16)||5-5-----5-----5----|7-7-----7-----7----|5-5-----5-----5----|7-----|
Chorus|------------------|------------------|------|----------||------------------|------------------|------|----------||8--9--11---9---11-|8--9--11-----11-9-|------|6----8----||-----9-------9----|-----9-----9------|7-----|6----8----||------------------|------------------|7(x16)|4(x8)6(x8)||------------------|------------------|5-----|----------|
|------------------|------------------|------|----------||------------------|------------------|------|----------||8--9--11---9---11-|8--9--11-----11-9-|------|6----4----||-----9-------9----|-----9-----9------|7-----|6----4----||------------------|------------------|7(x16)|4(x8)2(x8)||------------------|------------------|5-----|----------|
Interlude|--------------------|----------------------||--------------------|----------------------||13-13-13----11-9----|9-9-9-----9-----9-----||-x--x--x-----x-x----|9-9-9-----9-----9-----||11-11-11(x3)-9-7(x7)|0-0-0(x4)-0(x3)-0(x2)-||-0--0--0-----0-0----|----------------------|
|------------4--------------|---------------------------||---4-------------4---------|---------------------------||------4---------------4----|11-11-----9----8----11-----||6--------6-----------------|-x--x-----x----x-----x-----||---------------------------|-9--9(x6)-7(x2)6(x2)-9(x2)-||---------------------------|-0--0-----0----0-----0-----|
Verse 2|-------------------|-------------------|-------------------|-------------------||-------------------|--9----------------|---------9---9(x2)-|---------7---7(x2)-||8-9----------------|6------------------|--8---------8------|--8---------8------||-------------------|-------------6(x5)-|6----------6-------|9----------9-------||-------------7(x5)-|-------------------|-------------------|-------------------||-------------------|-------------------|-------------------|-------------------|
|-------------------|-------------------|-------------------|----------||-------------------|--9----------------|-------------------|----------||8-9----------------|6------------------|--8----------------|.....-----||-------------------|-------------6(x5)-|6------------------|9(x8)9(x8)||-------------7(x5)-|-------------------|-------------------|9----9----||-------------------|-------------------|-------------------|7----7----|
Pre-Chrous 2 is the same as Pre-Chrous 1. Chorus 2 is the same as Chorus 1.
Bridge|---------------------------|----------------------||9--9--9(x3)/12----------9--|9--9--9(x2)-----------||-----------------11--7-----|------------11-9------||---------------------------|----------------------||---------------------------|----------------------||---------------------------|----------------------|
|11p0-0-12p0-0-14p0-0-11h12p11-|----11----------12p11-----------||------------------------------|--------12-----------12----12---||------------------------------|11----------11---------11----11-||------------------------------|--------------------------------||------------------------------|--------------------------------||------------------------------|--------------------------------|
|14------12------11----12-----12-|12------11\--9------------||----12------12------12-----12---|----12-----------9------9-||--------------------------------|--------------------11----||--------------------------------|--------------------------||--------------------------------|--------------------------||--------------------------------|--------------------------|
|----------------------|----------------------------||-----------9(x4)10(x4)|12--10--9-------------------||9(x4)11(x4)-----------|-----------11--9--8---------||----------------------|---------------------11--9--||----------------------|----------------------------||----------------------|----------------------------|
Pre-Chorus 3|-------------------|-------------------|-------------------|-------------------||--------5----------|--------7----------|--------5----------|-------------------||--------6----------|--------8----------|--------6----------|-------------------||7-7-----7-----7----|9-9-----9-----9----|7-7-----7-----7----|9-------------9----||7-7(x2)-7(x2)-7(x8)|9-9(x2)-9(x2)-9(x8)|7-7(x2)-7(x2)-7(x8)|9-------------9(x4)||5-5-----5-----5----|7-7-----7-----7----|5-5-----5-----5----|7-------------7----|
Chorus 3 is the same as Chorus 1.
Outro|-------------||-------------||9-------\----||9-------\----||7-------\----||-------------|
Tap to rate this tab
 
# A B C D E F G H I J K L M N O P Q R S T U V W X Y Z