Afi – The Leaving Song Pt. Ii tab

TUNE DOWN 1/2 STEP:
(LOW TO HIGH)Eb-Ab-Db-Gb-Bb-Eb

INTRO
GTR. 1 (DIST.)

|----------14--10/14----------------19--|----------14--10/14----------------17/19--|------20-------------15----------------|------20-------------15--------------|----|-------------------------16--19--------|-------------------------16--19------|----|---------------------------------------|-------------------------------------|----|--19-----------------------------------|--19---------------------------------|----|---------------------------------------|-------------------------------------|----
--15------14------14----12------||------22------20----------------||--------------------------------||--------------------------------||--------------------------------||--------------------------------||
VERSE A TEMPO GTR. 1 TACET
|------------------------------------------------------||------------------------------------------------------||--12--------11--------9-------------9--9--9--9--------||--X---------X---------X-------------X--X--X--X--------||--10--------9---------7-------------7--7--7--7--------||--0------0--0------0--0-------------0--0--0--0--0--0--|
|------------------------------------------------------||------------------------------------------------------||--12--------11--------9-------------9--9--9--9--------||--X---------X---------X-------------X--X--X--X--------||--10--------9---------7-------------7--7--7--7--------||--0------0--0------0--0-------------0--0--0--0--0--0--|
|--------------------------------------------------------||--------------------------------------------------------||--12--------14--14/16-----------------16-16-16-16-------||--X---------X-------------------------X--X--X--X--------||--10--------12--12/14-----------------14-14-14-14-0--0--||--0------0--0----------0--------------0--0--0--0--0--0--|
|------------------------------------|||------------------------------------|||--7------7---7-7--------------------|||--7------7---7-7-----5-5-5-5/7-7-7--|||--5------5---5-5-----5-5-5-5/7-7-7--|||--5------5---5-5--0--3-3-3-3/5-5-5--||
|------------------------------------------------------||------------------------------------------------------||--12--------11--------9-------------9--9--9--9--------||--X---------X---------X-------------X--X--X--X--------||--10--------9---------7-------------7--7--7--7--------||--0------0--0------0--0-------------0--0--0--0--0--0--|
|------------------------------------------------------||------------------------------------------------------||--12--------11--------9-------------9--9--9--9--------||--X---------X---------X-------------X--X--X--X--------||--10--------9---------7-------------7--7--7--7--------||--0------0--0------0--0-------------0--0--0--0--0--0--|
|--------------------------------------------------------||--------------------------------------------------------||--12--------14--14/16--16-------------16-16\14----------||--X---------X----------X--------------X--X--X-----------||--10--------12--12/14--14-------------14-14\12----------||--0------0--0----------0--------------0--0--0-----0--0--|
|------------------------------------|||------------------------------------|||--7------7---7-7--------------------|||--7------7---7-7-----5-5-5-5/7-7-7--|||--5------5---5-5-----5-5-5-5/7-7-7--|||--5------5---5-5--0--3-3-3-3/5-5-5--||
PRE-CHORUS
|--12-12-12-15-15-15-14-14-14-10-10-10-14-14-12-12--||---------------------------------------------------||---------------------------------------------------||---------------------------------------------------||---------------------------------------------------||---------------------------------------------------|
|--12-12-12-15-15-15-14-14-14-10-10-10---14-14-12-0--||-------------------------------------------------0--||----------------------------------------------------||----------------------------------------------------||----------------------------------------------------||----------------------------------------------------|
|--12-0-0-15-0-0-14-0-0-10-0-0-14--0--12--0--||-----0-0----0-0----0-0----0-0-----0------0--||--------------------------------------------||--------------------------------------------||--------------------------------------------||--------------------------------------------|
|--12-12-12/15-15-15-14---14--|||--12-12-12/15-15-15-15---15--|||-----------------------------|||-----------------------------|||-----------------------------|||-----------------------------||
CHORUS
|-----------------------------------------------||-----------------------------------------------||-----------------------------------------------||--2--------2----2--2-----5------------4--5--4--||--2--------2----2--2-----5------------5-----5--||--0--------0----0--0-----3---------0-----------| BREAK DOWN, AND CEASE ALL FEE - LING.
|--------------------------------------------------------||--------------------------------------------------------||---------------------------------------------11/12/14---||--2---------2--2--2----2--2------5-----------X----------||--2---------2--2--2----2--2------5-----------9-/10/12---||--0---------0--0--0----0--0------3------0---------------| BURN NOW, WHAT ONCE WAS BREATH - ING
|----------------------------------------|--------------------5-----------7-----0--0--||----------------------------------------|-------------5--------5---------7-----0--0--||----------------------------------------|-----5---------5--------5-------8-----0--0--||--2-----2---2--2----5----------4--5--4--|---------------------------7/9--9-----------||--2-----2---2--2----5----------5-----5--|--------------------------------9-----------||--0-----0---0--0----3-------0-----------|--5-----5-5------5--------------7-----------| REACH OUT AND YOU MAY TAKE MY HEART A - WAY.-----
|--0------------------------|||--0------------------------|||--0----------7/9--9-9-9-9--|||--2----------X----X-X-X-X--|||--2----------5/7--7-7-7-7--|||--0----------0----0-0-0-0--||
BRIDGEPLAY 3 TIMES|-----------------------------------------------|--------------------------------------||-----------------------------------------------|--------------------------------------||-----------------------------------------------|--------------------------------------||-----------------------------------------------|--------------------------2--2--2--2--||--2--2--2--2-----2--2--2-----2--2--2--2--2--2--|-----------------2--2--2--2--2--2--2--||--0--0--0--0-----0--0--0-----0--0--0--0--0--0--|-----------------0--0--0--0--0--0--0--|
|-------------------------------------|---------------------------------------||-------------------------------------|---------------------------------------||--4-------------5--------------------|------------4/5--4-------------0-------||--X-------------X--------------------|--7---------X----X------------------0--||--2-------------3--------------------|--5---------2/3--2---------------------||------0-0-0-0---------0-0-0-0-0-0-0--|------0-0--------0------0-0-0----------| AH, AH.-------------RIFF A W/ CLEAN TONE & FINGERS LET RING THROUGHOUT
|--14----------14----------15-----------------------|--14-------17----------15-----|---------------------------------------------------|------------------------------|------17----------17-----------------16------------|------------------------------|--14------14----------14--14--------------14---14--|-------14------14------14-----|---------------------------------------------------|------------------------------|---------------------------------------------------|------------------------------____________________________________ I SAW ITS BIRTH,
-------------------|-------------------|-----16------------|----------14---14--|-------------------|-------------------| I WATCHED IT
|--14----------14----------15---a-------------------|--17----------17-------19--||---------------------------------------------------|------------------0--------||------17----------17-----------------16------------|------17-------------------||--14------14----------14--14--------------14---14--|--14------14-----------14--||---------------------------------------------------|---------------------------||---------------------------------------------------|---------------------------| GROW, I FELT IT CHANGE ME----------
|--14----------14----------15-----------------------|--14-------17----------15-----|---------------------------------------------------|------------------------------|------17----------17-----------------16------------|------------------------------|--14------14----------14--14--------------14---14--|-------14------14------14-----|---------------------------------------------------|------------------------------|---------------------------------------------------|------------------------------ I TOOK THE LIFE, I ATE IT SLOW, NOW ITS CON - SUMES
-------------------|-------------------|-----16------------|----------14---14--|-------------------|-------------------| ME.-----------------
RIFF B (DIST)|-----------------------------------|-----------------------------------------------||-----------------------------------|-13-13-13-13-13-13-13-13-13-13-13-13-13-13-----||--8-8-8-8-8-8-8-8-8-8-8-8-8-8------|-11-11-11-11-11-11-11-11-11-11-11-11-11-11-----||--7-7-7-7-7-7-7-7-7-7-7-7-7-7------|-10-10-10-10-10-10-10-10-10-10-10-10-10-10-----||--6-6-6-6-6-6-6-6-6-6-6-6-6-6------|-9--9--9--9--9--9--9--9--9--9--9--9--9--9------||--0-0-0-0-0-0-0-0-0-0-0-0-0-0-0-0--|-0--0--0--0--0--0--0--0--0--0--0--0--0--0--0-0-|
|-------------------------------------------------|--------------------------------------|-16-16-16-16-16-16-16-16-16-16-16-16-16-16-------|--------------------------------------|-14-14-14-14-14-14-14-14-14-14-14-14-14-14-------|--------------------------------------|-13-13-13-13-13-13-13-13-13-13-13-13-13-13-------|--------------------------------------|-12-12-12-12-12-12-12-12-12-12-12-12-12-12-------|--------------------------------------|-0--0--0--0--0--0--0--0--0--0--0--0--0--0--0--0--|--0-0-0--0--0-0-0--0-0-0--0--0-0-0-0-0
ORDER OF SONG 1. INTRO 2. VERSE 3. PRE-CHORUS 4. CHORUS 5. VERSE 6. PRE-CHORUS 7. CHORUS 8. BRIDGE 9. RIFF A 10. RIFF B 11. CHORUS
Please rate this tab:
x1.0