Afi - Girls Not Grey tab

Alright, I've done a tab like this
before and combined other tabbers
stuff with mine, and made 
it easier for beginners.
here ya go

                          Girls not Grey
                                AFI

Gtr I |-------------------------------------|----------------| |-------------------------------------|----------------| |-----------10-10-10-10-4-----4-4-----|----------------| |-7-(7)-7-7-10-10-10-10-5-(5)-5-5-7-7-|-7-7-7-(7)-7-7--| |-7-(7)-7-7--8--8--8--8-5-(5)-5-5-7-7-|-7-7-7-(7)-7-7--| |-5-(5)-5-5--8--8--8--8-3-(3)-3-3-5-5-|-5-5-5-(5)-5-5--|
|-------------------------------------------| |-------------------------------0-13-13-----| |-10-10-10-10\12-(12)-12-12-12--0-14-14-4-4-| |-10-10-10-10\12-(12)-12-12-12--0-14-14-5-5-| |--8--8--8--8\10-(10)-10-10-10----12-12-5-5-| |--8--8--8--8\10-(10)-10-10-10----12-12-3-3-|
then|------------------------------------------| |------------------------------------------| |-----------10-10-10-10-4-(4)-4-4----------| |-7-----7-7-10-10-10-10-5-(5)-5-5-7-7-7-7--| |-7-----7-7--8--8--8--8-5-(5)-5-5-7-7-7-7--| |-5-----5-5--8--8--8--8-3-(3)-3-3-5-5-5-5--|
|---------------------------------------| |---------------------------------------| |-----------10-10-10-10-----------------| |-7-(7)-7-7-10-10-10-10-----------------| |-7-(7)-7-7--8--8--8--8-10-10-(10)-5-7--| |-5-(5)-5-5--8--8--8--8--8--7--(7)-3-5--| End here for over dubed
Gtr 2. Overdub|-------------------------------------------------------------------------------------------| |-------------------------------------------------------------------------------------------| |-------7h9--9-----4h5-5-5-----4-4-4p0--0~~--7h9~~--9-9-9-----7h9--9-9--4h5-5-5p0--5p4-0h2--| |--0-0--7----7-----3-------------------------7~~~~--7-7-7-----7----7-7----------0-----------| |-------0----0--0--0--------0----------------0~~~~--0-0-0--0--0----0-0----------------------| |----------------------------------------------------------0--------------------------------|
Verse |-------------------------------------------------------------------------------| |-------------------------------------------------------------------------------| |-------5-5-5-5-5--7-7-7-7-7-7--5-5-5-5-5--4-4-4-4-4-4--5-5-5-5-5--7-7-7-7-7-7--| |-------7-7-7-7-7--5-5-5-5-5-5--3-3-3-3-3--5-5-5-5-5-5--7-7-7-7-7--5-5-5-5-5-5--| |-(7)---------------------------------------------------------------------------| |-(5)---------------------------------------------------------------------------|
|------------------------------------------------------------------------------------| |------------------------------------------------------------------------------------||-7-7-7-7-7--5-5-5-5-5-5--5-5-5-5-5--7-7-7-7-7-7--5-5-5-5-5--4-4-4-4-4-4--5-5-5-5-5--| |-4-4-4-4-4--3-3-3-3-3-3--7-7-7-7-7--5-5-5-5-5-5--3-3-3-3-3--5-5-5-5-5-5--7-7-7-7-7--| |------------------------------------------------------------------------------------| |------------------------------------------------------------------------------------|
.............................p.m...........................|--------------------------------------| |--------------------------------------||-7-7-7-7-7-7--7-7-7-7-7--5-5-5-5-5-5--||-5-5-5-5-5-5--4-4-4-4-4--3-3-3-3-3-3--||--------------------------------------||--------------------------------------| ...p.m.....
|------------------------------------------------------------------------------| |------------------------------------------------------------------------------| |-5-5-5-5-5--7-7-7-7-7-7--5-5-5-5-5-5--4-4-4-4-4--9-9-9-9-9-9--12-12-12-12-12--| |-7-7-7-7-7--5-5-5-5-5-5--3-3-3-3-3-3--5-5-5-5-5--7-7-7-7-7-7---9--9--9--9--9--| |------------------------------------------------------------------------------| |------------------------------------------------------------------------------|
|----------------------------------------------------------5-5-5-5-5-5-5-5-5-5----| |----------------------------------------------------------5-5-5-5-5-5-5-5-5-5----| |-12-12-12-12-12-12--12-12-12-12-12-12-12----------5-5-5-5-5-5-5-5-5-5-5-5-5-5----| |-10-10-10-10-10-10--12-12-12-12-12-12-12----------7-7-7-7-7-7-7-7-7-7-7-7-7-7-0--| |--------------------10-10-10-10-10-10-10----------7-7-7-7-7-7-7-7-7-7-7-7-7-7-0--| |------------------------------------------5-5-5-5-5-5-5-5-5-5-5-5-5-5-5-5-5-5-0--|
Chorus |--------------------------------------| |-----------------------------------5--| |-10-(10)-8----9--9--9--9-4-(4)-4-4-5--| |-10-(10)-8-8-10-10-10-10-5-(5)-5-5-7--| |--8--(8)-8-8-10-10-10-10-5-(5)-5-5-7--| |--8--(8)---8--8--8--8--8-3-(3)-3-3-5--|
|-------|---------------------------------------| |-------|---------------8--8--8--8--------------| |-5-5-5-|-10-(10)-10----9--9--9--9-4-(4)-4-4-5--| |-7-7-7-|-10-(10)-10-8-10-10-10-10-5-(5)-5-5-7--| |-7-7-7-|--8--(8)--8-8-10-10-10-10-5-(5)-5-5-7--| |-5-5-5-|--8--(8)--8-8--8--8--8--8-3-(3)-3-3-5--|
|-------|---------------------------------------| |-------|---------------------------------------| |-------|---------10----9--9--9--9-4-(4)-4-4-5--| |-7-7-7-|-10-(10)-10-8-10-10-10-10-5-(5)-5-5-7--| |-7-7-7-|--8--(8)--8-8-10-10-10-10-5-(5)-5-5-7--| |-5-5-5-|--8--(8)--8-8--8--8--8--8-3-(3)-3-3-5--|
|-------|-----------------------------------------| |-------|--------------------------0-0-0-0-0-0-0--| |-------|---------10----9--9--9--9-1-1-1-1-1-1-1--| |-7-7-7-|-10-(10)-10-8-10-10-10-10-2-2-2-2-2-2-2--| |-7-7-7-|--8--(8)--8-8-10-10-10-10-2-2-2-2-2-2-2--| |-5-5-5-|--8--(8)--8-8--8--8--8--8-0-0-0-0-0-0-0--|
------------------------------------------------| |-----------------------------------------------| |-9-9-9-9-9-9-9-9-16-16-16-16-16-16-16-16-16-16-| |-9-9-9-9-9-9-9-9-xx-xx-xx-xx-xx-xx-xx-xx-xx-xx-| |-7-7-7-7-7-7-7-7-14-14-14-14-14-14-14-14-14-14-| |-7-7-7-7-7-7-7-7-------------------------------|
Verse |-------------------------------------------------------------------------------| |-------------------------------------------------------------------------------| |-------5-5-5-5-5--7-7-7-7-7-7--5-5-5-5-5--4-4-4-4-4-4--5-5-5-5-5--7-7-7-7-7-7--| |-------7-7-7-7-7--5-5-5-5-5-5--3-3-3-3-3--5-5-5-5-5-5--7-7-7-7-7--5-5-5-5-5-5--| |-(7)---------------------------------------------------------------------------| |-(5)---------------------------------------------------------------------------|
|------------------------------------------------------------------------------------| |------------------------------------------------------------------------------------||-7-7-7-7-7--5-5-5-5-5-5--5-5-5-5-5--7-7-7-7-7-7--5-5-5-5-5--4-4-4-4-4-4--5-5-5-5-5--| |-4-4-4-4-4--3-3-3-3-3-3--7-7-7-7-7--5-5-5-5-5-5--3-3-3-3-3--5-5-5-5-5-5--7-7-7-7-7--| |------------------------------------------------------------------------------------| |------------------------------------------------------------------------------------|
.............................p.m...........................|--------------------------------------| |--------------------------------------||-7-7-7-7-7-7--7-7-7-7-7--5-5-5-5-5-5--||-5-5-5-5-5-5--4-4-4-4-4--3-3-3-3-3-3--||--------------------------------------||--------------------------------------| ...p.m..... Fade out of p.m.'s
|------------------------------------------------------------------------------| |------------------------------------------------------------------------------| |-5-5-5-5-5--7-7-7-7-7-7--5-5-5-5-5-5--4-4-4-4-4--9-9-9-9-9-9--12-12-12-12-12--| |-7-7-7-7-7--5-5-5-5-5-5--3-3-3-3-3-3--5-5-5-5-5--7-7-7-7-7-7---9--9--9--9--9--| |------------------------------------------------------------------------------| |------------------------------------------------------------------------------|
|----------------------------------------------------------5-5-5-5-5-5-5-5-5-5----| |----------------------------------------------------------5-5-5-5-5-5-5-5-5-5----| |-12-12-12-12-12-12--12-12-12-12-12-12-12----------5-5-5-5-5-5-5-5-5-5-5-5-5-5----| |-10-10-10-10-10-10--12-12-12-12-12-12-12----------7-7-7-7-7-7-7-7-7-7-7-7-7-7-0--| |--------------------10-10-10-10-10-10-10----------7-7-7-7-7-7-7-7-7-7-7-7-7-7-0--| |------------------------------------------5-5-5-5-5-5-5-5-5-5-5-5-5-5-5-5-5-5-0--| that may be pretty hard
Chorus |--------------------------------------| |-----------------------------------5--| |-10-(10)-8----9--9--9--9-4-(4)-4-4-5--| |-10-(10)-8-8-10-10-10-10-5-(5)-5-5-7--| |--8--(8)-8-8-10-10-10-10-5-(5)-5-5-7--| |--8--(8)---8--8--8--8--8-3-(3)-3-3-5--|
|-------|---------------------------------------| |-------|---------------8--8--8--8--------------| |-5-5-5-|-10-(10)-10----9--9--9--9-4-(4)-4-4-5--| |-7-7-7-|-10-(10)-10-8-10-10-10-10-5-(5)-5-5-7--| |-7-7-7-|--8--(8)--8-8-10-10-10-10-5-(5)-5-5-7--| |-5-5-5-|--8--(8)--8-8--8--8--8--8-3-(3)-3-3-5--|
|-------|---------------------------------------| |-------|---------------------------------------| |-------|---------10----9--9--9--9-4-(4)-4-4-5--| |-7-7-7-|-10-(10)-10-8-10-10-10-10-5-(5)-5-5-7--| |-7-7-7-|--8--(8)--8-8-10-10-10-10-5-(5)-5-5-7--| |-5-5-5-|--8--(8)--8-8--8--8--8--8-3-(3)-3-3-5--|
|-------|-----------------------------------------| |-------|--------------------------0-0-0-0-0-0-0--| |-------|---------10----9--9--9--9-1-1-1-1-1-1-1--| |-7-7-7-|-10-(10)-10-8-10-10-10-10-2-2-2-2-2-2-2--| |-7-7-7-|--8--(8)--8-8-10-10-10-10-2-2-2-2-2-2-2--| |-5-5-5-|--8--(8)--8-8--8--8--8--8-0-0-0-0-0-0-0--|
------------------------------------------------| |-----------------------------------------------| |-9-9-9-9-9-9-9-9-16-16-16-16-16-16-16-16-16-16-| |-9-9-9-9-9-9-9-9-xx-xx-xx-xx-xx-xx-xx-xx-xx-xx-| |-7-7-7-7-7-7-7-7-14-14-14-14-14-14-14-14-14-14-| |-7-7-7-7-7-7-7-7-------------------------------|
Bridge |--------------------------| |--------------------------| |-----------5-5-5-5-5-5-5--| |-9-9-9-9-9-5-5-5-5-5-5-5--| |-5-5-5-5-5-3-3-3-3-3-3-3--| |-5-5-5-5-5-3-3-3-3-3-3-3--|
|--------------------------------------------------| |-------------------------6-6-6-6-6----------------| |-4-4-4-4-4-5-5-5-5-5-5-5-7-7-7-7-7-5-5-5-5-5-5-5--| |-5-5-5-5-5-7-7-7-7-7-7-7-7-7-7-7-7-5-5-5-5-5-5-5--| |-5-5-5-5-5-7-7-7-7-7-7-7-5-5-5-5-5-3-3-3-3-3-3-3--| |-3-3-3-3-3-5-5-5-5-5-5-5-5-5-5-5-5-3-3-3-3-3-3-3--|
|----------------------------------------| |-----------5-5-5-5-5-5------------------| |-4-4-4-4-4-5-5-5-5-5-5------------------| |-5-5-5-5-5-7-7-7-7-7-7------------------| |-5-5-5-5-5-7-7-7-7-7-7-----10-10-10-10--| |-3-3-3-3-3-5-5-5-5-5-5-0-0--7--8--8--8--|
|--------------------------------------------| |----------------------13-13-13-13-13-12-12--| |-12-12-12-12-12-12-12-14-14-14-14-14-14-14--| |-12-12-12-12-12-12-12-14-14-14-14-14-14-14--| |-10-10-10-10-10-10-10-12-12-12-12-12-12-12--| |-10-10-10-10-10-10-10-12-12-12-12-12-12-12--|
Interlude |-12-12-12-12-12-12-12-12-12-12-5-5-|-5-5-5--------------|---------0-(0)------| |-12-12-12-12-12-13-13-13-13-13-6-6-|-6-6-6-5-5-5-(5)----|-(5)-----------0----| |-14-14-14-14-14-14-14-14-14-14-7-7-|-7-7-7-5-5-5-(5)----|-(5)----------------| |-14-14-14-14-14-14-14-14-14-14-7-7-|-7-7-7-5-5-5-(5)----|-(5)---7---------7--| |-12-12-12-12-12-12-12-12-12-12-5-5-|-5-5-5-3-3-3-(3)----|-(3)----------------| |-12-12-12-12-12-12-12-12-12-12-5-5-|-5-5-5-3-3-3-(3)----|-(3)----------------|
|-0-(0)---------0---|----------------0-|----------0-------|-------0--------| |-------0---------0-|-(0)----(0)-------|-0-(0)------0-----|---------0------| |---------5---------|------------------|--------------5---|----------------| |-----------7-5-----|--------------7---|-------7--------7-|-(7)-6-----6----| |-------------------|------------------|------------------|----------------| |-------------------|------------------|------------------|----------------|
|-0-----0-(0)------|-0-------------0---|----------------0-|-(0)------0---------| |-0-----------0----|---0-------------0-|-(0)----(0)-------|-----0------0-(0)---| |------------------|-----5-------------|------------------|------------------5-| |-----7---------7--|-------0-(0)-5-----|--------------7---|-------7------------| |------------------|-------------------|------------------|--------------------| |------------------|-------------------|------------------|--------------------|
|-----0-----------------|----------------12-------| |-------0---------------|-------------------13----| |-----------------------|-------------14-------14-| |-0-5-----4-(4)-(4)-(4)-|-(4)-(4)S2-0-------------| |-----------------------|-------------------------| |-----------------------|-------------------------|
|-12-----------------------12-|-(12)----(12)--------| |----13-(13)------------------|----------------(12)-| |------------14-(14)-14-12----|---------------------| |-----------------------------|---------------------| |-----------------------------|---------------------| |-----------------------------|---------------------|
|----12-------12------------|----15--------13-(13)----| |-------13-------13-(13)----|-------13-------------13-| |-14-------14------------14-|-14-------14-------------| |---------------------------|-------------------------| |---------------------------|-------------------------| |---------------------------|-------------------------|
|-----------------12-------12--|-----------------------12-----| |-(13)---------------13--------|-13-----------------------12--| |------14-(14)-14-------14-----|----14-(14)-14-(14)-12--------| |------------------------------|------------------------------| |------------------------------|------------------------------| |------------------------------|------------------------------|
|-----------------|-12-------12----------------| |-----------------|----13--------13------------| |-12----(12)---14-|-------14--------14-(14)-14-| |-----------------|----------------------------| |-----------------|----------------------------| |-----------------|----------------------------|
|------15-------15-------15-|----13-------13-------13--| |---------13-------13-------|-14----13-------13--------| |-(14)-------14-------14----|----------14-------14-----| |---------------------------|--------------------------| |---------------------------|--------------------------| |---------------------------|--------------------------|
|-----------------------------------------------| |-----------------------------------------------| |---14-14-14-14-12-12-12-12-10-10-10-10-9-9-9-9-| |----x--x--x--x--x--x--x--x--x--x--x--x-x-x-x-x-| |---12-12-12-12-10-10-10-10--8--8--8--8-7-7-7-7-| |-0---------------------------------------------|
Chorus |--------------------------------------| |-----------------------------------5--| |-10-(10)-8----9--9--9--9-4-(4)-4-4-5--| |-10-(10)-8-8-10-10-10-10-5-(5)-5-5-7--| |--8--(8)-8-8-10-10-10-10-5-(5)-5-5-7--| |--8--(8)---8--8--8--8--8-3-(3)-3-3-5--|
|-------|---------------------------------------| |-------|---------------8--8--8--8--------------| |-5-5-5-|-10-(10)-10----9--9--9--9-4-(4)-4-4-5--| |-7-7-7-|-10-(10)-10-8-10-10-10-10-5-(5)-5-5-7--| |-7-7-7-|--8--(8)--8-8-10-10-10-10-5-(5)-5-5-7--| |-5-5-5-|--8--(8)--8-8--8--8--8--8-3-(3)-3-3-5--|
|-------|---------------------------------------| |-------|---------------------------------------| |-------|---------10----9--9--9--9-4-(4)-4-4-5--| |-7-7-7-|-10-(10)-10-8-10-10-10-10-5-(5)-5-5-7--| |-7-7-7-|--8--(8)--8-8-10-10-10-10-5-(5)-5-5-7--| |-5-5-5-|--8--(8)--8-8--8--8--8--8-3-(3)-3-3-5--|
|-------|-----------------------------------------| |-------|--------------------------0-0-0-0-0-0-0--| |-------|---------10----9--9--9--9-1-1-1-1-1-1-1--| |-7-7-7-|-10-(10)-10-8-10-10-10-10-2-2-2-2-2-2-2--| |-7-7-7-|--8--(8)--8-8-10-10-10-10-2-2-2-2-2-2-2--| |-5-5-5-|--8--(8)--8-8--8--8--8--8-0-0-0-0-0-0-0--|
------------------------------------------------| |-----------------------------------------------| |-9-9-9-9-9-9-9-9-16-16-16-16-16-16-16-16-16-16-| |-9-9-9-9-9-9-9-9-xx-xx-xx-xx-xx-xx-xx-xx-xx-xx-| |-7-7-7-7-7-7-7-7-14-14-14-14-14-14-14-14-14-14-| |-7-7-7-7-7-7-7-7-------------------------------|
Outro |-------------------------------------|----------------| |-----------------------------------5-|-5-5-5-(5)-5-5--| |-------5-5-10-10-10-10-4-(4)-4-4-5-5-|-5-5-5-(5)-5-5--| |-7-(7)-7-7-10-10-10-10-5-(5)-5-5-7-7-|-7-7-7-(7)-7-7--| |-7-(7)-7-7--8--8--8--8-5-(5)-5-5-7-7-|-7-7-7-(7)-7-7--| |-5-(5)-5-5--8--8--8--8-3-(3)-3-3-5-5-|-5-5-5-(5)-5-5--|
|-------------------------------------------| |-------------------------------0-13-13-3-3-| |-10-10-10-10S12-(12)-12-12-12--0-14-14-4-4-| |-10-10-10-10S12-(12)-12-12-12--0-14-14-5-5-| |--8--8--8--8S10-(10)-10-10-10----12-12-5-5-| |--8--8--8--8S10-(10)-10-10-10----12-12-3-3-|
then|------------------------------------------| |-----------------10-10-----------5-5-5-5--| |-5-(5)-5-5-10-10-10-10-4-(4)-4-4-5-5-5-5--| |-7-(7)-7-7-10-10-10-10-5-(5)-5-5-7-7-7-7--| |-7-(7)-7-7--8--8--8--8-5-(5)-5-5-7-7-7-7--| |-5-(5)-5-5--8--8--8--8-3-(3)-3-3-5-5-5-5--|
|---------------------------------------| |-5-(5)-5-5-----------------------------| |-5-(5)-5-5-10-10-10-10-----------------| |-7-(7)-7-7-10-10-10-10-----------------| |-7-(7)-7-7--8--8--8--8-10-10-(10)-5-7--| |-5-(5)-5-5--8--8--8--8--8--7--(7)-3-5--| End here for over dubed
Gtr 2. |-------------------------------------------------------------------------------------------|---------------------------------------------------------------------------|-------7h9--9-----4h5-5-5-----4-4-4p0--0~~--7h9~~--9-9-9-----7h9--9-9--4h5-5-5p0--5p4-0h2--| |--0-0--7----7-----3-------------------------7~~~~--7-7-7-----7----7-7----------0-----------| |-------0----0--0--0--------0----------------0~~~~--0-0-0--0--0----0-0----------------------| |----------------------------------------------------------0--------------------------------|
|------------*| |------------*| |------------*| |------------*| |-(7)--------*| |-(5)--------*|
Here are the Lyrics I'll lay me down tonight Much further down Swim in the calm tonight This art does drown (What follows) me as the whitest lace of light (Will swallow whole) just begs to be imbrued? (What follows) has lead me to this place where I belong, with all erased What follows All insects sing tonight The coldest sound I'd send God's grace tonight Could it be found? (What follows) me as the whitest lace of light (Will swallow whole) just begs to be imbrued? (What follows) has lead me to this place where I belong, with all erased I'll lay me down tonight Much further down Watch stars go out tonight On sinking ground I'll lay me down, I'll lay me down (What follows) me as the whitest lace of light (Will swallow whole) just begs to be imbrued? (What follows) has lead me to this place where I belong, with all erased What follows will swallow whole What follows will swallow whole THAT'S IT!!!!!!!!!!!!! THANK ALL THE OTHER TABBERS!!!!!!!!! U ALL ROCK! Amorican, AngelOfLust, crying silence, a few unrejistered dudes, and especially afi_skateboard for the order and indications and much more! THANKS AGAIN!!!!!!!!! Beginners, you too, my influence to make this tab for u guys!!!! HAVE FUN!!!!!!!!!!!!!!!!!!!!
Tap to rate this tab
 
# A B C D E F G H I J K L M N O P Q R S T U V W X Y Z