Afi – The Last Kiss tab

Song: The Last Kiss
Band: AFI
Album: Black Sails in the Sunset
Tabbed by: Sam Flores



Intro. 3x

|----------------------------------------------------||----------------------------------------------------||-------10------9------10------12------5-5-5-5-5-----||--------0-0-0--0-0-0--0--0-0--0--0-0--0-0-0-0-0-----||----------------------------------------------------||----------------------------------------------------|
then3x|---8----8-----||---10---8-----||---10---8-----||---10---10----||---8----10----||---8----8-----|
Verse 2x|---5-5-5-5-5---1-1---3----1-1-1-1-1---3-3--5--| |---6-6-6-6-6---2-2---4----1-1-1-1-1---5-5--6--| |---7-7-7-7-7---3-3---5----2-2-2-2-2---5-5--7--| |---7-7-7-7-7---3-3---5----3-3-3-3-3---5-5--7--| |---5-5-5-5-5---1-1---3----3-3-3-3-3---3-3--5--| |---5-5-5-5-5---1-1---3----1-1-1-1-1---3-3--5--|
|---5-5-5-5-5---1-1---3----1-1-1-1-1---3-3-3-3-||---6-6-6-6-6---2-2---4----1-1-1-1-1---5-5-5-5-||---7-7-7-7-7---3-3---5----2-2-2-2-2---5-5-5-5-||---7-7-7-7-7---3-3---5----3-3-3-3-3---5-5-5-5-||---5-5-5-5-5---1-1---3----3-3-3-3-3---3-3-3-3-||---5-5-5-5-5---1-1---3----1-1-1-1-1---3-3-3-3-|
|---5-5-5-5-5---1-1---3----1-1-1-1-1---3-3--5---| |---6-6-6-6-6---2-2---4----1-1-1-1-1---5-5--6---||---7-7-7-7-7---3-3---5----2-2-2-2-2---5-5--7---| |---7-7-7-7-7---3-3---5----3-3-3-3-3---5-5--7---||---5-5-5-5-5---1-1---3----3-3-3-3-3---3-3--5---||---5-5-5-5-5---1-1---3----1-1-1-1-1---3-3--5---|
5-5-5-5-5---1-1---3---6-6-6-6--8--8--8--8------6-6-6-6--8--8--8--8---|6-6-6-6-6---2-2---4---6-6-6-6--8--8--8--8------6-6-6-6--8--8--8--8---|7-7-7-7-7---3-3---5---6-6-6-6--8--8--8--8------6-6-6-6--8--8--8--8---|7-7-7-7-7---3-3---5---8-8-8-8--10-10-10-10-----8-8-8-8--10-10-10-10--| 5-5-5-5-5---1-1---3---8-8-8-8--10-10-10-10-----8-8-8-8--10-10-10-10--| 5-5-5-5-5---1-1---3---6-6-6-6--8--8--8--8------6-6-6-6--8--8--8--8---|
then play this into the Chorus:|---8----8-----||---10---8-----||---10---8-----||---10---10----||---8----10----||---8----8-----|
Chorus:3x|--5-5-5-5---3-3-3-3----6-5-1--||--5-5-5-5---3-3-3-3----6-5-1--||--7-7-7-7---5-5-5-5----7-6-1--||--7-7-7-7---5-5-5-5----8-7-3--||--5-5-5-5---3-3-3-3----8-7-3--||--5-5-5-5---3-3-3-3----6-5-1--|
|--5-5-5-5---3-3-3-3----6-5-1--3-3-3-||--5-5-5-5---3-3-3-3----6-5-1--3-3-3-||--7-7-7-7---5-5-5-5----7-6-1--3-3-3-||--7-7-7-7---5-5-5-5----8-7-3--5-5-5-||--5-5-5-5---3-3-3-3----8-7-3--5-5-5-||--5-5-5-5---3-3-3-3----6-5-1--3-3-3-|
|--5-5-5-5---3-3-3-3----6-5-1--||--5-5-5-5---3-3-3-3----6-5-1--||--7-7-7-7---5-5-5-5----7-6-1--||--7-7-7-7---5-5-5-5----8-7-3--||--5-5-5-5---3-3-3-3----8-7-3--||--5-5-5-5---3-3-3-3----6-5-1--|
then play this little fill here after the 3rd run:|--8--8--10--||--8--8--10--||--8--10-12--||--10-10-12--||--10-8--10--||--8--8--10--|
Verse after playing the verse enter chorus with this|---3---5-----||---3---5-----||---3---5-----||---5---7-----||---3---7-----||---3---5-----|
Chorus (along with fill). Sustain 1st note of fill after playing it. Breakdown or whatever you wanna call it:
1st part|--------------|-------------||--------------|-------------||--7--5--------|-7--5--------||--7--5--7--8--|-7--5--7--8--||--5--3--7--8--|-5--3--7--8--||--5--3--5--6--|-5--3--5--6--|
x 2nd part2x|--5-5---3-3---5-5---6-6---8--8--||--6-6---4-4---5-5---6-6---10-8--||--7-7---5-5---5-5---6-6---10-8--||--7-7---5-5---7-7---8-8---10-10-||--5-5---3-3---7-7---8-8---8--10-||--5-5---3-3---5-5---6-6---8--8--|
|--5-5---3-3---5-5---6-6-6-6-||--6-6---4-4---5-5---6-6-6-6-||--7-7---5-5---5-5---6-6-6-6-||--7-7---5-5---7-7---8-8-8-8-||--5-5---3-3---7-7---8-8-8-8-||--5-5---3-3---5-5---6-6-6-6-|
then this:|-6-6-6-6--8--8--8--8------6-6-6-6--8--8--8--8----8--8--||-6-6-6-6--8--8--8--8------6-6-6-6--8--8--8--8----10-8--||-6-6-6-6--8--8--8--8------6-6-6-6--8--8--8--8----10-8--||-8-8-8-8--10-10-10-10-----8-8-8-8--10-10-10-10---10-10-| |-8-8-8-8--10-10-10-10-----8-8-8-8--10-10-10-10---8--10-| |-6-6-6-6--8--8--8--8------6-6-6-6--8--8--8--8----8--8--|
Chorus again Outro:
|-5---8--8--8--8--8---10---5--5-||-6---8--8--8--8--8---10---6--6-||-7---10-8--10-8--10--12---7--7-||-7---10-10-10-10-10--12---7----||-5---8--10-8--10-8---10---5----||-5---8--8--8--8--8---10---5----|
|---8--8--8--8--8---6--5-5-||---8--8--8--8--8---6--6-6-||---10-8--10-8--10--6--7-7-||---10-10-10-10-10--8--7---||---8--10-8--10-8---8--5---||---8--8--8--8--8---6--5---|
|-5---8--8--8--8--8---10---5--5-||-6---8--8--8--8--8---10---6--6-||-7---10-8--10-8--10--12---7--7-||-7---10-10-10-10-10--12---7----||-5---8--10-8--10-8---10---5----||-5---8--8--8--8--8---10---5----|
|---8--8--8--8---8---8---6-||---8--8--8--8---8---8---6-||---10-8--10-8---8---8---6-||---10-10-10-10--10--10--8-||---8--10-8--10--10--10--8-||---8--8--8--8---8---8---6-|
e-mail me any questions at diacrusis@hotmail.com
Please rate this tab:
x1.0