Afi - Reivers Music tab

Song: Reiver's Music
Album: 336 Vinyl
Artist: AFI

At some points of the song, I had to combine the two guitars to get the one
guitar part featured in this tab; you should be able to see/hear this. Questions,
comments, corrections and hate-mail can be directed to:
x1bloodredsolace1x@hotmail.com or xMiseriaCantarex@comcast.net

Key:

x - Mute/Palm Mute
. - Cut off
/ - Slide Up
* - Same fret as previous, didn't have room to fit it

*Tune all strings down a half step*
______________________________________

Part I [x2 on second time, play to arrow]

6|-0-0--0-0-0--0-0--0-0-0|5|-7-7--7-7-7--7-7--7-7-7|4|-9-9--9-9-9--9-9--9-9-9|3|-9-9--9-9-9--9-9--9-9-9|2|-----------------------|1|-----------------------|
6|-------|5|-------|4|----4--|3|-0-----|2|---3---|1|-------|
6|-0-0--0-0-0--0-0--0-0-0|5|-7-7--7-7-7--7-7--7-7-7|4|-9-9--9-9-9--9-9--9-9-9|3|-9-9--9-9-9--9-9--9-9-9|2|-----------------------|1|-----------------------|
6|-3-3-3--3-3--3-3-3|5|-5-5-5--5-5--5-5-5|4|-5-5-5--5-5--5-5-5|3|------------------|2|------------------|1|------------------|
6|-0-0--0-0-0--0-0--0-0-0|5|-7-7--7-7-7--7-7--7-7-7|4|-9-9--9-9-9--9-9--9-9-9|3|-9-9--9-9-9--9-9--9-9-9|2|-----------------------|1|-----------------------|
6|-------|5|-------|4|----4--| <---3|-0-----| 2|---3---|1|-------|
6|-0-0-0--0-0-0-0| 5|-2-2-2--2-2-2-2| 4|-2-2-2--2-2-2-2|3|-x-x-x--. . . .|2|---------------|1|---------------|
Part II
6|-----------|5|-5-5--5-5-5|4|-x-x--x-x-x|3|-7-7--7-7-7|2|-----------|1|-----------|
6|-----------|5|-7-7--7-7-7|4|-x-x--x-x-x|3|-9-9--9-9-9|2|-----------|1|-----------|
6|-9-9--9-9-9|5|-x-x--x-x-x|4|11-*--*-*-*|3|-----------|2|-----------|1|-----------|
6|-5-5-5-5|5|-7-7-7-7|4|-7-7-7-7|3|--------|2|--------|1|--------|
6|-7| 5|-9| 4|-9| 3|--| 2|--| 1|--| 6|-3| 5|-5| 4|-5| 3|--| 2|--| 1|--| 6|----|
5|-5-5|4|-7-7|3|-7-7|2|----|1|----|
Part III [ x2 on second time, play to arrow ]
6|---------------------|5|-7-7--7-7-7--7-7--7-7|4|-9-9--9-9-9--9-9--9-9|3|-9-9--9-9-9--9-9--9-9|2|---------------------|1|---------------------|
6|--| 5|-9| 4|11| 3|11| 2|--| 1|--|
6|----------------|5|-10-10--10-10-10|4|-12-12--12-12-12|3|-12-12--12-12-12|2|----------------|1|----------------|
6|-10-10--10-10-10|5|-12-12--12-12-12|4|-12-12--12-12-12|3|----------------|2|----------------|1|----------------|
6|-8-8--8-8-8--8-8--8-8-8|5|10-*--*-*-*--*-*--*-*-*|4|10-*--*-*-*--*-*--*-*-*|3|-----------------------| <---2|-----------------------|1|-----------------------|
6|----------------|5|-10-10--10-10-10|4|-12-12--12-12-12|3|-12-12--12-12-12|2|----------------|1|----------------|
6|-10-10--10-10-10|5|-12-12--12-12-12|4|-12-12--12-12-12|3|----------------|2|----------------|1|----------------|
Part IV
6|-7-7--7-7-7-7-7-7-7-7--7-7-7-7|5|-9-9--9-9-9-9-9-9-9-9--9-9-9-9|4|-9-9--9-9-9-9-9-9-9-9--9-9-9-9|3|------x-x-x-x-x-x-x-x---------|2|------------------------------|1|------------------------------|
6|---------|5|---------|4|---------|3|-------12|2|----12---|1|-12------|
Then Play: Part I x2, Part II x1, and Part III x2 Part V
6|-----|5|--5-5|4|--7-7|3|--7-7|2|-----|1|-----|
6|--5-5--5-5-5|5|--7-7--7-7-7|4|--7-7--7-7-7|3|------------|2|------------|1|------------|
Part VI
6|------------------------------------------|5|------------------------------------------|4|------------------------------------------|3|--9---9--9---9--9---9--9---9--9---9--9---9| 2|----8------8------8------8------8------8--| 1|------------------------------------------|
6|-----|5|--3-3|4|--5-5|3|--5-5|2|-----|1|-----|
6|--3-5|5|--5-5|4|--5-5|3|-----|2|-----|1|-----|
6|-----------------------|5|-----------------------|4|-----------------------|3|--4-----4-----4-----4--|2|------2-----2-----2---2|1|----2-----2-----2------|
6|-----|5|--5-5|4|--7-7|3|--7-7|2|-----|1|-----|
6|--0|5|--2|4|--2|3|---|2|---|1|---|
6|----------------------|5|----------------------|4|----------------------|3|--9-----9-----9----9--|2|------8-----8----8---8|1|----7-----7----7------|
6|-----|5|--3-3|4|--5-5|3|--5-5|2|-----|1|-----|
6|--3|5|--5|4|--5|3|---|2|---|1|---|
6|-----------------------|5|-----------------------|4|-----------------------|3|--4-----4-----4-----4--|2|------3-----3-----3---3|1|----3-----3-----3------|
6|--2-2|5|--5-5|4|--4-4|3|-----|2|-----|1|-----|
6|--0|5|--2|4|--2|3|---|2|---|1|---|
6|--------------|5|--------------|4|--------------|3|--9-----9----9|2|------8----8--|1|----7----7----|
Part VII [Starts at 2:00 MIN]
6|-----|5|--3-3|4|--5-5|3|--5-5|2|-----|1|-----|
6|--3|5|--5|4|--5|3|---|2|---|1|---|
6|-----|5|--5-5|4|--7-7|3|--7-7|2|-----|1|-----|
6|--0|5|--2|4|--2|3|---|2|---|1|---|
6|-----|5|--3-3|4|--5-5|3|--5-5|2|-----|1|-----|
6|--3|5|--5|4|--5|3|---|2|---|1|---|
6|-----|5|--5-5|4|--7-7|3|--7-7|2|-----|1|-----|
6|--5|5|--7|4|--7|3|---|2|---|1|---|
6|-----------------|5|--3-3-3-3-3/5-5-5|4|--x-x-x-x-x/x-x-x|3|--5-5-5-5-5/7-7-7|2|-----------------|1|-----------------|
6|-------------------|5|--2-2-2-2-2-2-2-2-2|4|--4-4-4-4-4-4-4-4-4|3|--4-4-4-4-4-4-4-4-4|2|------------------.|1|-------------------|
6|----|
5|--10|4|--12|3|--12|2|----|1|----|
Quickly jump to:
6|--10-10|5|--12-12|4|--12-12|3|-------|2|-------|1|-------|
Then Play: Part III x4 Part VIII [Play Part VIII x3] *Listen to song for correct strumming motion*
6|----------|5|--7--7-7-7|4|--9--9-9-9|3|--9--9-9-9|2|----------|1|----------|
6|---|
5|--9|4|-11|3|-11|2|---|1|---|
6|-----------|5|--10--10-10|4|--12--12-12|3|--12--12-12|2|-----------|1|-----------|
6|--10--10-10|5|--12--12-12|4|--12--12-12|3|-----------|2|-----------|1|-----------|
6|---8---8--8--8---8--8|5|--10--10-10-10--10-10|4|--10--10-10-10--10-10|3|---------------------|2|---------------------|1|---------------------|
6|-----------|5|--10--10-10|4|--12--12-12|3|--12--12-12|2|-----------|1|-----------|
6|--10--10-10|5|--12--12-12|4|--12--12-12|3|-----------|2|-----------|1|-----------|
Part VIIII
6|----------|5|--7--7-7-7|4|--9--9-9-9|3|--9--9-9-9|2|----------|1|----------|
6|---|
5|--9|4|-11|3|-11|2|---|1|---|
6|----|
5|--10|4|--12|3|--12|2|----|1|----|
6|--10|5|--12|4|--12|3|----|2|----|1|----|
6|--8|5|-10|4|-10|3|---|2|---|1|---|
-END-
Tap to rate this tab
 
# A B C D E F G H I J K L M N O P Q R S T U V W X Y Z