Afi - The Great Disappointment tab

A.F.I.
The Great Dissapointment
Sing The Sorrow
Tuning : Drop D, 1/2 Step Down (Db Ab Db Gb Bb eb)

Since this song has so many different parts, I figured I would
make the tab go striaght through the song. The only repeat I have 
is near the end. I tried my best to put the rhythm into this tab. 
It helps, but it made the areas w/ the double digits a bit confusing.
Shouldn't be a problem, though.

  8p6 : Pull off
  5h6 : Hammer on
PM... : Palm mute
    x : Mute string
  7/9 : Slide up
  8/5 : Slide down
  (0) : Ghost note
|-3-| : Triplet
  12< : Volume Swell


First Verse (Clean):|---5-----5---------------5-------6-------6---------------8-------||-----6-------6---------------6-------6-------6---------------6---||-7-----7-------------7---------7-------7-------------7---------7-||-----------------------------------------------------------------||-----------------------------------------------------------------||-----------------------------------------------------------------|
|-8p6-5-------------------5---------0---0-------------5-----------||-------------6---------------6-------5---5h6-------------6-------||---------------------7-----------7-----------7---------------7---||-----------------------------------------------------------------||-----------------------------------------------------------------||-----------------------------------------------------------------|
|---5-----5---------------5-------6-------6---------------8-------||-----6-------6---------------6-------6-------6---------------6---||-7-----7-------------7---------7-------7-------------7---------7-||-----------------------------------------------------------------||-----------------------------------------------------------------||-----------------------------------------------------------------|
|-8p6-5---5---------------5---------5-----5-----5---8-----8-----8-||-------------6---------------6-------6-----6---------6-----6-----||---------------------7-----------7-----7-----7---7-----7-----7---||-----------------------------------------------------------------||-----------------------------------------------------------------||-----------------------------------------------------------------|
Pre-Verse (Distorted):|---5-----5-----5---------6-------6\5---5-----8-8-------8---8-----||-----6-----6-------6---------6-------------6-------6-------------||-7-----7-------------7---------7-----7---------------7-------0-0-||-0-----------0-----------------------------------------------0-0-||-----------------------------------------------------------------||-----------------------------------------------------------------|
Second Verse:|-----------------------------------------5-----------------------||-------------------------------------------6---------------------||-5h7-----7---7-------7---7-------5h7---------7-----------5-------||-0---0-0-0---0-------0---0---0-0-0---0-0-------------0-0-0---0-0-||-----------------------------------------------------------------||-----------------------------------------------------------------| PM... PM... PM... PM... PM...
|-----------------------------------------------------------------||---------------------------------6p5-----6h8-6-------6-----------||-5h7-----7---7-------7---7-------7-------7---7-----------7-------||-0---0-0-0---0-------0---0---0-0-0---0-0-0---0---------------0-0-||-----------------------------------------------------------------||-----------------------------------------------------------------| PM... PM... PM... PM...
|-----------------------------------------5-----------------------||-------------------------------------------6---------------------||-5h7-----7---7-------7---7-------5h7---------7-----------5-------||-0---0-0-0---0-------0---0---0-0-0---0-0-------------0-0-0---0-0-||-----------------------------------------------------------------||-----------------------------------------------------------------| PM... PM... PM... PM... PM...
|---------------------------------5---------------8---------------||-------------------------------------6---------------6-----------||-5h7-----7---7-------7---7---7-----------7---------------7-------||-0---0-0-0---0-------0---0---0---------------0-------------------||-------------------------------------------------------------0---||-----------------------------------------------------------------|
Pre-Chorus:|--------------------------------------------------------------------------||--------------------------------------------------------------------------||7-7---7-7---7-7---7-7/9-9---9/10-10-10--10-10-10-10/14-14-14-14-14-14-14--||x-x---x-x---x-x---x-x---x---x----x--x---x--x--x--x------x--x--x--x--x--x-0||5-5---5-5---5-5---5-5/7-7---7/8--8--8---8--8--8--8-/12-12-12-12-12-12-12-0||0-0---0-0---0-0---0-0---0---0----0--0---0--0--0--0------0--0--0--0--0--0-0|
Short Chorus:|--------------------------------------------------||--------------------------------------------------||--------------------------------------------------||-1010--10-----7-7-7-7-7---8-8-8-8-8/--12--14------||--8-8---8-0---3-3-3-3-3---5-5-5-5-5/--10--10--0---||--8-8---8-0---3-3-3-3-3---5-5-5-5-5/--10--10--0---|
|------------------------------------------------------||------------------------------------------------------||-1414--14-/15-1212121212/14-1010101010/12-9-9-9-------||--x-x---x------x-x-x-x-x-----x-x-x-x-x----x-x-x---0---||-1212--12-/13-1010101010/12--8-8-8-8-8/10-7-7-7---0---||--0-0---0------0-0-0-0-0-----0-0-0-0-0----0-0-0---0---|
|--------------------------------------------------||--------------------------------------------------||--------------------------------------------------||-1010--10-----7-7-7-7-7---8-8-8-8-8/--12--14------||--8-8---8-0---3-3-3-3-3---5-5-5-5-5/--10--10--0---||--8-8---8-0---3-3-3-3-3---5-5-5-5-5/--10--10--0---|
|------------------------------------------------------||------------------------------------------------------||-1414--14-/15-1212121212/14-1010101010/12-9-9-9---9---||--x-x---x------x-x-x-x-x-----x-x-x-x-x----x-x-x---x---||-1212--12-/13-1010101010/12--8-8-8-8-8/10-7-7-7---7---||--0-0---0------0-0-0-0-0-----0-0-0-0-0----0-0-0---0---|
Pre-Verse:|------------------------------------------------------------------||------------------------------------------------------------------||-10---------------10-/12---9---------------5---5--5h7-------------||--0----------------0---0---0---------------0---0--0---------------||--8----------------8-/10---7---------------3----------------------||--0----------------0---0---0---------------0----------------------|
Third Verse:|------------------------------------------------------------------||o----------------------------------------------------------------o||------------------------------------------------------------------||--0---0-0-x---3-------3---3-3-----8---8-8-x---3--------3---3-3p0--||o-0---0-0-x---3-------3---3-3-0---8---8-8-x---3--------3---3-3p0-o||--0---0-0-x---3-------3---3-3-0---8---8-8-x---3--------3---3-3p0--|
|--------------------------------------------------------------------||--------------------------------------------------------------------||--------------------------------------------------------------------||-10/121212-----3-------3---3-3-----8---8-8-x-x-3--------3---3-3-3---||-10/121212-0---3-------3---3-3-0---8---8-8-x-x-3--------3---3-3-3---||-----------0---3-------3---3-3-0---8---8-8-x-x-3--------3---3-3-3---|
|------------------------------------------------------------------||------------------------------------------------------------------||------------------------------------------------------------------||-0---0-0-x-x-3-------3---3-3--------------------------------------||-0---0-0-x-x-3-------3---3-3-0---8---8---8---8--10---10--1010-0---||-0---0-0-x-x-3-------3---3-3-0---8---8---8---8--10---10--1010-0---|
Pre-Chorus:|-------------------------------------------------||-------------------------------------------------||-10-10---10-10-10-10-10-10-10-10/12-12-12-12/14--||--x--x----x--x--x--x--x--x--x--x-----x--x--x-----||--8--8----8--8--8--8--8--8--8--8/10-10-10-10/12--||--0--0----0--0--0--0--0--0--0--0-----0--0--0-----|
|-------------------------------------------------||-------------------------------------------------||-14-14---14-14-14-14/19-19-19-19-19-19-19--------||--x--x----x--x--x--x-----x--x--x--x--x--x-0------||-12-12---12-12-12-12/17-17-17-17-17-17-17-0------||--0--0----0--0--0--0-----0--0--0--0--0--0-0------|
Long Chorus:
|--------------------------------------------------||--------------------------------------------------||--------------------------------------------------||-1010--10-----7-7-7-7-7---8-8-8-8-8/--12--14------||--8-8---8-0---3-3-3-3-3---5-5-5-5-5/--10--10--0---||--8-8---8-0---3-3-3-3-3---5-5-5-5-5/--10--10--0---|
|------------------------------------------------------||------------------------------------------------------||-1414--14-/15-1212121212/14-1010101010/12-9-9-9-------||--x-x---x------x-x-x-x-x-----x-x-x-x-x----x-x-x---0---||-1212--12-/13-1010101010/12--8-8-8-8-8/10-7-7-7---0---||--0-0---0------0-0-0-0-0-----0-0-0-0-0----0-0-0---0---|
|--------------------------------------------------||--------------------------------------------------||--------------------------------------------------||-1010--10-----7-7-7-7-7---8-8-8-8-8/--12--14------||--8-8---8-0---3-3-3-3-3---5-5-5-5-5/--10--10--0---||--8-8---8-0---3-3-3-3-3---5-5-5-5-5/--10--10--0---|
|------------------------------------------------------||------------------------------------------------------||-1414--14-/15-1212121212/14-1010101010/12-9-9-9---9---||--x-x---x------x-x-x-x-x-----x-x-x-x-x----x-x-x---x---||-1212--12-/13-1010101010/12--8-8-8-8-8/10-7-7-7---7---||--0-0---0------0-0-0-0-0-----0-0-0-0-0----0-0-0---0---|
|----------------------------------------------------||----------------------------------------------------||----------------------------------------------------||-10-10---10-----7-7-7-7-7---8-8-8-8-8---0---0---0---||--8--8----8-0---3-3-3-3-3---5-5-5-5-5---0---0---0---||--8--8----8-0---3-3-3-3-3---5-5-5-5-5---0---0---0---|
|---------------------------------------------------||---------------------------------------------------||---------------------------------------------------||-10-10---10-----7-7-7-7-7/-12-12---12\-8---8---0---||--8--8----8-0---3-3-3-3-3/-10-10---10\-5---5---0---||--8--8----8-0---3-3-3-3-3/-10-10---10\-5---5---0---|
|---------------------------------------------------||---------------------------------------------------||---------------------------------------------------||-10-10---10-----7-7-7-7-7---8-8-8-8-8---0---0---0--||--8--8----8-0---3-3-3-3-3---5-5-5-5-5---0---0---0--||--8--8----8-0---3-3-3-3-3---5-5-5-5-5---0---0---0--|
|-----------------------------------------------------||-----------------------------------------------------||-----------------------------------------------------||-10-10---10-----7-7-7-7-7---8-8-8-8-8/-12---14-------||--8--8----8-0---3-3-3-3-3---5-5-5-5-5/-10---10---0---||--8--8----8-0---3-3-3-3-3---5-5-5-5-5/-10---10---0---|
Pre-Bridge:|---------------------------------------------------||---------------------------------------------------||-10-----------9-----------8-----------7------------||--x-----------x-----------x-----------x------------||--5-----------5-----------5-----------5------------||--0-----------0-----------0-----------0------------|
Bridge (Clean):|----------------------------------------------------------||-10---10-11-----8---8-10-----6-------8------5------6------||-10---10-12-----9---9--7-----7-------9------5------7------||---(0)-----(0)---(0)----(0)---(0)-(0)-(0)----(0)(0)-(0)---||----------------------------------------------------------||----------------------------------------------------------| ^These (0)'s might be bass, I can't tell
|---------------------------------------------------------||-10---10-11-----8---8-10-----6---6-8-----5-----5-----3---||-10---10-12-----9---9--7-----7---7-9-----5-----5-----2---||---(0)-----(0)---(0)----(0)---(0)---(0)---(0)---(0)------||---------------------------------------------------------||---------------------------------------------------------|
(Distorted)|----------------------------------------------||----------------------------------------------||-14-----14--12-----12--15--15--15--14--14--14-||--x------x---x------x---x---x---x---x---x---x-||-12-----12--10-----10--13--13--13--12--12--12-||--0------0---0------0---0---0---0---0---0---0-|
|--------------------------------------------------||--------------------------------------------------||-14-----14--12--12--12--15--151515/1714--141414---||--x------x---x---x---x---x---x-x-x----x---x-x-x---||-12-----12--10--10--10--13--131313/1512--121212---||--0------0---0---0---0---0---0-0-0----0---0-0-0---|
|--------------------------------------------------||--------------------------------------------------||-14--14--14--12--12--12--1515151515--14--14--14---||--x---x---x---x---x---x---x-x-x-x-x---x---x---x---||-12--12--12--10--10--10--1313131313--12--12--12---||--0---0---0---0---0---0---0-0-0-0-0---0---0---0---|
|--------------------------------------------------||--------------------------------------------------||-14--141414--17--17--17--1919--1919--19--19--19---||--x---x-x-x---x---x---x---x-x---x-x---x---x---x---||-12--121212--15--15--15--1717--1717--17--17--17---||--0---0-0-0---0---0---0---0-0---0-0---0---0---0---|
Breakdown:|-----------------------------------------------------------------||-----------------------------------------------------------------||-----------------------------------------------------------------||-7h8p5-5h7p5-3-------------------3-----3---3-3-----------3-------||-5-----5-----3-------------------3-----3---3-3-----------3-------||-----------------------------------------------------------------|
|-------------------------------------------------------------------||-------------------------------------------------------------------||-------------------------------------------------------------------||-5---5---3h5p3-0------------------10h12---12--1212--------12\------||-5---5---------0------------------10h12---12--1212--------12\------||-------------------------------------------------------------------| |--3--|
|-----------------------------------------------------------------||-----------------------------------------------------------------||-----------------------------------------------------------------||-7h8p5-5h7p5-3-------------------3-----3---3-3-----------3-------||-5-----5-----3-------------------3-----3---3-3-----------3-------||-----------------------------------------------------------------|
|-------------------------------------------------------------------||-------------------------------------------------------------------||----------------------------------10-----12-----9------------------||-5---5---3h5p3-0-------------------x------x-----x------------------||-5---5---------0-------------------8-----10-----7------------------||-------------------------------------------------------------------| |--3--|
Pre-Pre-Chorus (Yeah Im runnin outta names for these things...):|-----------------------------------------------------------------||-----------------------------------------------------------------||-10--------------12---------------10--------------10-------------||--x---------------x----------------x---------------x-------------||--8--------------10----------------8---------------8-------------||-----------------------------------------------------------------| < < <
|-----------------------5---------5-----------5---6-------8-------||---------------------------6--------6----------6----6------6-----||-7---------------7-----------7---------7---------------7-----7-0-||----0---------------0----------0-----------0---------------------||-----------------------------------------------------------------||-----------------------------------------------------------------|
Pre-Chorus:|-----------------------------------------------------------------||-----------------------------------------------------15----------||-1010101010101010101010s12121212/14--1414--1414--14--17b19-------||--x-x-x-x-x-x-x-x-x-x-x----x-x-x------x-x---x-x---x--------------||--8-8-8-8-8-8-8-8-8-8-8s10101010/12--1212--1212--12--------------||--0-0-0-0-0-0-0-0-0-0-0----0-0-0------0-0---0-0---0--------------|
Repeat Long Chorus
End (Clean):|---------------------------||---------------------------||-------7-9-0--9h10---------||-7-------------------------||---------------------------||-7---/10-----12------------|
Please Rate -Guy With Guitar
Tap to rate this tab
 
# A B C D E F G H I J K L M N O P Q R S T U V W X Y Z