Afi - Kiss And Control tab

[Kiss And Control]
[AFI]
[Decemberunderground]

By: Joshua Oliveira
Tuning:D# G# C# F# A# D#

[Drumming] - [00:00] - [00:31]

[Intro/Verse 1] - [00:31] - [01:07]- ------------2--0----------2--3--3--5--2--2-3-3--5-----------7--3--|- --0--0--0----3--0-0--0-----3--0--0--0--3------0--0-----------8--0-|- ---0--0--0---------0--0--------------2----------------------------|- -2--------0---2--------0h2--2-----------2---------4h5p4h5p4-------|- ----3--2---------3--2----------3--2---------3--2-----------7--3---|- ------------------------------------------------------------------|
--2-3-2--2-3--3--2-3-2----7-8-7-5----------------------------------| -------3-------0------3--------------------------------------------| --------------------0----------------------------------------------| -----0--2--------------7/9-------0-7-9-7-7-7-4-4-4-4-4-4-4-4-4-4-4-| -2-----------3--2------5/7-------------5-5-5-2-2-2-2-2-2-2-2-2-2-2-| -------------------------------------------------------------------|
---------------5-| -----------5-5-5-| -------7-7-7-7-7-| -4-7-7-7-7-7-7-7-| -2-5-5-5-5-5-5-5-| -----------------|
[Chorus 1] - [01:07] - [01:34]- --0----0-----------------------------------3-3-3---0----0---------|- ----0----0-----3-3-3-5~-555-5-5-5----------x-x-x-----0----0-----3-|- ---0-0--0-0----5-5-5-7~-777-7-7-7-0-00-0-0-0-0-0----0-0--0-0----5-|- -2~---4~----5~-5-5-5-7~-777-7-7-7-2-22-2-2-2-2-2--2~---4~----5~-5-|- -2~---4~----5~-3-3-3-5~-555-5-5-5-2-22-2-2-2-2-2--2~---4~----5~-3-|- -0~---2~----3~-3-3-3-5~-555-5-5-5-0-00-0-0-0-0-0--0~---2~----3~-3-|
----------------------------------------<12>--------| -3-3-5~-555-5-5-5---------------------------<7>-----| -5-5-7~-777-7-7-7-9-11-12-9-11-12-16~----------<5~>-| -5-5-7~-777-7-7-7-x-x--x--x-x--x--x-----------------| -3-3-5~-555-5-5-5-7-9--10-7-9--10-14~---------------| -3-3-5~-555-5-5-5-0-0--0--0-0--0--0~----------------|
[Verse 2] - [01:34] - [02:09]- --------------------------------------------------------------|- --------------------------------------------------------------|- --------------------------------------------------------------|- -999999---------------------777777-999999---------------------|- -777777-101010101010-999999-555555-777777-101010101010-999999-|- --------8-8-8-8-8-8--777777---------------8-8-8-8-8-8--777777-|
-----------------------------------------------------------| -13b-13--13--13--------------------------------------------| -17----16--16--16------------------------------------------| ------------------999999---------------------777777-999999-| ------------------777777-101010101010-999999-555555-777777-| -------------------------8-8-8-8-8-8--777777---------------|
----------------------12b-------------------------------------| -----------------------------7-7-7-7-7--3-3-3-3-3--2-2-2-2-2--| ---------------------9-------9-9-9-9-9--5-5-5-5-5--4-4-4-4-4--| -------------------------x-x-9-9-9-9-9--5-5-5-5-5--4-4-4-4-4--| -101010101010-999999-----x-x-7-7-7-7-7--3-3-3-3-3--2-2-2-2-2--| -8-8-8-8-8-8--777777-----x-x-0-0-0-0-0--0-0-0-0-0--0-0-0-0-0--|PM ...
---------------------------------------------------------------| -5-5-5-5-5------------------------------------5-5-5--7-7-7-7-7-| -7-7-7-7-7-12-12-12~-12----------14-14-14~-14-7-7-7--9-9-9-9-9-| -7-7-7-7-7-x--x--x---x--10-10-10-x--x--x---x--7-7-7--9-9-9-9-9-| -5-5-5-5-5-10-10-10~-10-10-10-10-12-12-12~-12-5-5-5--7-7-7-7-7-| -0-0-0-0-0-0--0--0---0--8--8--8--0--0--0---0---------0-0-0-0-0-|
------------------------------------------------------------| -3-3-3-3-3--2-2-2-2-2--5-5-5-5-5----------------------------| -5-5-5-5-5--4-4-4-4-4--7-7-7-7-7----------------------------| -5-5-5-5-5--4-4-4-4-4--7-7-7-7-7--------------------------7-| -3-3-3-3-3--2-2-2-2-2--5-5-5-5-5--2-2-2-2-2-2-2-2-2-2-2-2-5-| -0-0-0-0-0--0-0-0-0-0--0-0-0-0-0----------------------------|PM .
-----------5-| ---------5-5-| -------7-7-7-| -777-7-7-7-7-| -555-5-5-5-5-| -------------|PM ...
[Verse 2 Overdub] - [01:43] - [01:52]- ------------------------------------------------------------------|- ------------------------------------------------------------------|- -11-12-12-11-12-12----<7><7><7><7>----<9><9><9><9>-11-12-12-11-12-|- -------------------12-<9><9><9><9>-12-----------------------------|- ------------------------------------------------------------------|- ------------------------------------------------------------------|
------------------------12b-----| --------------------------------| -12-12----<7><7><7><7>-9--------| -------12-<9><9><9><9>------x-x-| ----------------------------x-x-| ----------------------------x-x-|
[Chorus 2] - [02:09] - [02:36]- --0----0-----------------------------------3-3-3--0----0---------|- ----0----0-----3-3-3-5~-555-5-5-5----------x-x-x----0----0-----3-|- ---0-0--0-0----5-5-5-7~-777-7-7-7-0-00-0-0-0-0-0---0-0--0-0----5-|- -2~---4~----5~-5-5-5-7~-777-7-7-7-2-22-2-2-2-2-2-2~---4~----5~-5-|- -2~---4~----5~-3-3-3-5~-555-5-5-5-2-22-2-2-2-2-2-2~---4~----5~-3-|- -0~---2~----3~-3-3-3-5~-555-5-5-5-0-00-0-0-0-0-0-0~---2~----3~-3-|
------------------------------------------------------------| -3-3-5~-555-5-5-5-----------------555555555555-777777777777-| -5-5-7~-777-7-7-7-9-11-12-9-11-12-777777777777-999999999999-| -5-5-7~-777-7-7-7-x-x--x--x-x--x--777777777777-999999999999-| -3-3-5~-555-5-5-5-7-9--10-7-9--10-555555555555-777777777777-| -3-3-5~-555-5-5-5-0-0--0--0-0--0--555555555555-777777777777-|
-------------------------| -----------555555-666666-| -------5---777777-888888-| -4h5----5--777777-888888-| ----3-3--3-555555-666666-| -----------555555-666666-|
[Solo] - [02:36] - [03:05]- ------------0-----0--------------------------0-------------------|- -----------0------5br-----------------------0--------------------|- -4------4-------------------------4------4-----9-9-9-8-8-8-4-----|- --------------2-2-----2-2-5-5-5\---------------x-x-x-x-x-x-------|- ----------0---2-2-----2-2------------------0---7-7-7-6-6-6-------|- ---3-0---3----0-0-----0-0-----------3-0---3----0-0-0-0-0-0---3-0-|PM ... ...
-----------0-0-0--------------------------------------7-7-7-8-7-5-| -----0-----4/5-5\-----------------------0-------------x-x-x-x-x-x-| -4--5------------------------4------4--5--9-9-9-8-8-8-4-4-4-5-4-2-| -------2-2---------2-2-4/5\---------------x-x-x-x-x-x-0-0-0-0-0-0-| ---0---2-2---------2-2----------------0---7-7-7-6-6-6-------------| --3----0-0---------0-0---------3-0---3----0-0-0-0-0-0-------------|PM ... ...
-8-8-8-7-5-3-3~--------------------------------0~-| -x-x-x-x-x-x-x--4~-----------------------------0~-| -5-5-5-4-2-0-0~-x------------------------------0~-| -0-0-0-0-0-0-0~-1~-4h5-4h5-4h5-4h5-4h5-4h5-4h5-2~-| ----------------0~-----------------------------2~-| -----------------------------------------------0~-|
[Davey Speaks] - [03:05] - [03:20]
[Outro] - [03:20] - [04:18]- --0----0---------------------------------3-3-3--0----0-------|- ----0----0-----3-3-3-5~-555-5-5-5--------x-x-x----0----0-----|- ---0-0--0-0----5-5-5-7~-777-7-7-7-0-00-0-0-0-0---0-0--0-0----|- -2~---4~----5~-5-5-5-7~-777-7-7-7-2-22-2-2-2-2-2~---4~----5~-|- -2~---4~----5~-3-3-3-5~-555-5-5-5-2-22-2-2-2-2-2~---4~----5~-|- -0~---2~----3~-3-3-3-5~-555-5-5-5-0-00-0-0-0-0-0~---2~----3~-|
-------------------------------------0----0--------------------| -3-3-3-5~-555-5-5-5--------------------0----0-----3-3-3-5~-555-| -5-5-5-7~-777-7-7-7-9-11-12-9-11-12---0-0--0-0----5-5-5-7~-777-| -5-5-5-7~-777-7-7-7-x-x--x--x-x--x--2~---4~----5~-5-5-5-7~-777-| -3-3-3-5~-555-5-5-5-7-9--10-7-9--10-2~---4~----5~-3-3-3-5~-555-| -3-3-3-5~-555-5-5-5-0-0--0--0-0--0--0~---2~----3~-3-3-3-5~-555-|
--------------3-3-3--0----0--------------------------------------| -5-5-5--------x-x-x----0----0------3-3-3-5~-555-5-5-5------------| -7-7-7-0-00-0-0-0-0---0-0--0-0-----5-5-5-7~-777-7-7-7-9-11-12-9--| -7-7-7-2-22-2-2-2-2-2~---4~----5~--5-5-5-7~-777-7-7-7-x-x--x--x--| -5-5-5-2-22-2-2-2-2-2~---4~----5~--3-3-3-5~-555-5-5-5-7-9--10-7--| -5-5-5-0-00-0-0-0-0-0~---2~----3~--3-3-3-5~-555-5-5-5-0-0--0--0--|
-------0~----0-----0~-| -------0~-3~--1~-3~---| -11-12-0~-------------| -x--x--2~-------------| -9--10-2~-------------| -0--0--0~-------------|
[Symbols Used] h Hammer On. p Pull Off. / Slide Up. \ Slide Down. ~ Let Ring. x Dead Note. <> Notes with these around them a Natural Harmonics. b Bend. r Release Bend. PM... Palm Mute the notes with Dots (.) under them. \- Slide Down and slowly let go of the string so you are not sliding to specific number, but until the sound is gone.
Tap to rate this tab
 
# A B C D E F G H I J K L M N O P Q R S T U V W X Y Z