Carne Fresca Fresh Flesh tab with lyrics by Afterhours - Easy chords and tabs for guitar

Afterhours – Carne Fresca Fresh Flesh tab

AFTERHOURS

CARNE FRESCA/FRESH FLESH

tabbed by dan (yellowledbetter_69@hotmail.co.uk)

standard tuning

|-------------------------------------------------||-------------------------------------------------||-------------------------------------------------||--------------9----------------------9-----------||-------10-9-------9-10------10-9---------9h10p9--||----0-------0---0--------0---------0---0---------|intro guitar 1
|---------------------------------------------||---------------------------------------------||---------------------------------------------||------------9------------------9-------------||-----10-9-------9-10----10-9--------9h10p9---||---0------0---0-------0-------0---0----------|verse part 1 guitar 1
|-------------------------------------------------||-------------------------------------------------||-------------------------------------------------||---5-x-5-5--x-5-x-5-5-5--5-x-5-5--x-5-x-5-5-5----||-------------------------------------------------||-------------------------------------------------|verse part 1 guitar 2
|-------------------------------------------------||-------------------------------------------------||-------------------------------------------------||------------10---------------------10------------||-----10-9--------9h10p9----10-9---------9h10p9---||---0------0----0---------0-------0----0----------|verse part 2 guitar 1
|---12-x-12--x--12-12-x-12-x-12-x-12--x-12-12-x-12--||---------------------------------------------------||---------------------------------------------------||---------------------------------------------------||---------------------------------------------------||---------------------------------------------------|verse part 2 guitar 2
|---------------------------------------------------------||---------------------------------------------------------||---------------------------------------------------------||--7--7--7--7--7--7--7--7--7-10-10-10-10-10-10-10-10-10---||--7--7--7--7--7--7--7--7--7-10-10-10-10-10-10-10-10-10---||--5--5--5--5--5--5--5--5--5--8--8--8--8--8--8--8--8--8---|chorus
|---------------------------------------------||---------------------------------------------||---------------------------------------------||------------9------------------9-------------||-----10-9-------9-10----10-9--------9h10p9---||---0------0---0-------0------0---0-----------| 1st post chorus guitar 1
|-------------------------------||-------------------------------||-------------------------------||-----7-5-------7-5------7-5----||-------------------------------||--0--------0---------0---------| 1st post chorus guitar 2
|---------------------------------------------||---------------------------------------------||---------------------------------------------||------------9------------------9-------------||-----10-9-------9-10----10-9--------9h10p9---||---0------0---0-------0------0---0-----------| 2nd post chorus guitar 1
|---------------------------------------------||---------------------------------------------||--9---9---9---9---9vvvvvvvvvvvvvvvvvvvvvvvv--||--9---9---9---9---9vvvvvvvvvvvvvvvvvvvvvvvv--||--7---7---7---7---7vvvvvvvvvvvvvvvvvvvvvvvv--||--0---0---0---0---0vvvvvvvvvvvvvvvvvvvvvvvv--|2nd post chorus guitar 2
|---------------------------------------------||---------------------------------------------||---------------------------------------------||------------9------------------9-------------||-----10-9-------9-10----10-9--------9h10p9---||---0------0---0-------0------0---0-----------|3rd post-chorus guitar 1
|--12-12-12-12-12-12-12-12-12-12-12-12-12-12---||---x--x--x--x--x--x--x--x--x--x--x--x--x--x---||---9--9--9--9--9--9--9--9--9--9--9--9--9--9---||----------------------------------------------||----------------------------------------------||----------------------------------------------|3rd post chorus guitar 2
for the bridge, guitar is silent for 1 bar, then both guitar 1 plays verse part 1, and guitar 2 plays this:
|------------------------------------------||------------------------------------------||------------------------------------------||------------------------------------------||-----10-10---9h10-9-----10-10---9h10-9----||---0-----------------0--------------------|
back to chorus 4th post chorus is same as 2nd.
|----------------------------------------14-----14---||---------13-----15----15----17----17----------------||----------------------------------------------------||------14----14-----14----14----14----14-----14------||----------------------------------------------------||---0------------------------------------------------|solo
|---------------------------------------------------------||---------------------------------------------------------||---14--12-12-----14---12--12------12----12----12---------||-------------------------------14----14----14----14------||---------------------------------------------------------||---------------------------------------------------------|solo
|--------------------------------------------------------------||-------15-----17--17-------15-----17--17-----15------17--17---||--------------------------------------------------------------||---14-----14-----------14-----14---------14------14-----------||--------------------------------------------------------------||--------------------------------------------------------------|solo
|--------------------------------------------------------||---17---------------------------------------------------||---strum as fast as possible-----/14--14\12\9---7feedback-----||---14---------------------------------------------------||--------------------------------------------------------||--------------------------------------------------------||--------------------------------------------------------|solo
|--------------------------------------------||--------------------------------------------||---/16--16-14-12----------------------------||-----------------14----12h14vvvvvvvfeedback---||--------------------------------------------||--------------------------------------------|solo
2nd guitar just plays E chord in solo, then ends after it. guitar 1 goes back to intro until end.
Please rate this tab:
x1.0