Against Me - Beginning In An Ending tab

Intro|--------------------||--------------------||--------------------| 2X|--4---5---7---------||--5---7---9---------||--------------------|
Verse:
|--------------------||--------------------||--------------------||--4---5---7---------||--5---7---9---------||--------------------| Every day
|--------------------||--------------------||--------------------||--4---5---7---------||--5---7---9---------||--------------------| has a beginning and ending, just like
|--------------------||--------------------||--------------------||--7-----------------||--7-----------------||--5-----------------| every life
|--------------------||--------------------||--------------------||--7-----------------||--7-----------------||--5-----------------| has a start and finish.
|--------------------||--------------------||--------------------||--------------------||--4---5---7---------||--5---7---9---------| July is gone like the
|--------------------||--------------------||--------------------||--------------------||------------2-------||--2---------3-------| gasoline it took
|--------------------||--------------------||--------------------||--------------------||----------2-----4---||----------3-----5---|to make the circle again.
|--------------------||--------------------||--------------------||--------------------||--2-------------4---||--3-------------5---| Florida to Florida, by way of
|------------------------------------------------3-||------------------------------------------------3-||--7--7--7-6--6--6-4--4--4----------------------4--||--7--7--7-7--7--7-4--4--4-7--7--7-5------------5--||--5--5--5-4--4--4-2--2--2-7--7--7-5------------5--||---------------------------5--5--5-3-----3-3--3-3-|america,
|-------------------------||-------------------------||-------------------------||--4---5-------7----------||--5---7-------9----------||-------------------------| Cocaine and soda,
|--------------------------------||--------------------------------||--------------------------------||--4-------5----------7----------||--5-------7----------9----------||--------------------------------| playing Tetris in our underwear.
|-------------------------||-------------------------||-------------------------||------7------------------||------7------------------||------5------------------| We take turns reading letters,
|--------------------||--------------------||--------------------||--7-----------------||--7-----------------||--5-----------------| I read the haiku and you move your nails across my legs.
|----------------------||----------------------||----------------------||----------------------||--4---5----7----------||--5---7----9----------| In your arms,
|-------------------------||-------------------------||-------------------------||-------------------------||----------------2--------||------2---------3--------| I don't know who I am,
|------------------------||------------------------||------------------------||------------------------||-----2-------------4----||-----3-------------5----|taking all I know about nihilism
|------------------------------||------------------------------||-------------------- ----- 7--||--------------------------7---||--2-------------4---------5---||--3-------------5-------------| and trying to build it into a life.
Ending (figure out the strumming patterns and such, these are just the chords) :
|--------------------------3-------5---------------------------------------------||--------------------------3-------5---------------------------------------------||-------------7-6----------4-------6---------------------------------------------||--4-2--------7-7----------5-(x12)- 7-(x12)--------------------------------------||--5-4-555555-5-4-555555--5-------7----------------------------------------------||------777777-----777777--3-------5----------------------------------------------|
|---------------------------------------------------------- 5---2------------------||---------------------------------------------------------- 5---2------------------||-------------------- --------------------------------------6---0------------------||-4-2-----4---------- 4-------------------4---------------- 7---0------------------||-5-4-5---5(x6)-5-----5(x6)-5------55--44-5(x12)--4-5-4-5---7---2------------------||-----7(x6)-----7(x12)------7(x12)--77-------------------7---5---3-----------------|
With your thought in mind, I walk the streets down to the shore and I sink into the This is everything up to now ending. It was nice to believe for a while.
Tap to rate this tab
 
# A B C D E F G H I J K L M N O P Q R S T U V W X Y Z