Agathodaimon - Tristetea Vehementa tab

Here is a tab from the band Agathodaimon.
If you have any comments,suggestions, send them to tears_nacudrus@yahoo.com

Mikael


Intro Riff

|----------------------------|--------------------------||----------------------------|--------------------------||-----9-----10-----14------9-|----9-----10-----4-----2--||-----9-----10-----14------9-|----9-----10-----4-----2--||--0--7--0--8---0--12---0--7-|-0--7--0--8---0--2--0--0--||----------------------------|--------------------------|
|----------------------------|--------------------------||----------------------------|--------------------------||-----9-----10-----14------9-|----9-----10-----4-----2--||-----9-----10-----14------9-|----9-----10-----4-----2--||--0--7--0--8---0--12---0--7-|-0--7--0--8---0--2--0--0--||----------------------------|--------------------------|
|----------------------------------------||----------------------------------------||--------9--------10--------14--------9--||--------9--------10--------14--------9--||--0-0-0-7--0-0-0-8---0-0-0-12--0-0-0-7--||----------------------------------------|
|--------------------------------------||--------------------------------------||--------9--------10-------4--------2--||--------9--------10-------4--------2--||--0-0-0-7--0-0-0-8--0-0-0-2--0-0-0-0--||--------------------------------------|
Riff 1
|---------------------------------------------||---------------------------------------------||--------9--------10--------14--------9/10\9--||--------9--------10--------14--------9/10\9--||--0-0-0-7--0-0-0-8---0-0-0-12--0-0-0-7/8-\7--||---------------------------------------------|
pm . . . . . . . . . . . .
|--------------------------------------||--------------------------------------||--------9--------10-------4--------2--||--------9--------10-------4--------2--||--0-0-0-7--0-0-0-8--0-0-0-2--0-0-0-0--||--------------------------------------|
pm . . . . . . . . . . . . Riff 2
|--55555555777777778888888877775555--||------------------------------------||------------------------------------||------------------------------------||------------------------------------||------------------------------------|
|------------------------------------||--66666666888888885555555555558888--||------------------------------------||------------------------------------||------------------------------------||------------------------------------|
Riff 3
|------------------------------------||--55555555--------------------------||----------77777777555555554444------||------------------------------7777--||------------------------------------||------------------------------------|
|------------------------------------||------------------------------------||------------------------------------||--55555555777777774444444455557777--||------------------------------------||------------------------------------|
Riff 4
|-----------------------||--5--------------------||-------7----5----4-----||--------------------7--||-----------------------||-----------------------|
|-----------------------||-----------------------||-----------------------||--5----7----4----5--7--||-----------------------||-----------------------|
Riff 5
|---------------------------------------||---------------------------------------||--2-2--4-4--5-5--2-2-------2-2---------||--2-2--4-4--5-5--2-2--5-5--2-2--2-(2)--||--0-0--2-2--3-3--0-0--5-5--0-0--2-(2)--||----------------------3-3-------0-(0)--|
Riff 6
|-------------------------------------||-------------------------------------||-------------------------------------||--7------6------4----4-6-6--------7--||--7------6------4----4-6-6--------7--||--5------4------2----2-4-4----4-5-5--|
End Riff
|------||------||------||--6---| keep this chord for a long time|--6---||--4---|
Tap to rate this tab
 
# A B C D E F G H I J K L M N O P Q R S T U V W X Y Z