Judas tab with lyrics by Agony Scene - Easy chords and tabs for guitar

Agony Scene – Judas tab

Tuning : C G C F A D

<> pinch harmonic.

Guitar 1 :

---------------------------------------------|---------------------------------------------|---------------------------------------------|---------------------------------------------|-----8p7p5-8p7p5-7h8p7-----8p7p5-8p7p5-7h8p7-|--000-------------------000------------------|
------------------------------------------|------------------------------------------|------------------------------------------|------------------------------8-----------|----8p7p5-8p7p5-7h8p7-------------------7-|-000-------------------0-0-0-----0-0-0----|
Guitar 2 :
---------------------------------------------|---------------------------------------------|---------------------------------------------|--0------------------------------------------|--0------------------------------------------|--0------------------------------------------|
------------------------------------------|------------------------------------------|------------------------------------------|------------------------------------------|------------------------------1-----------|-----------------------0-0-0-----0-0-0--2-|
Guitar 1 :
---------------------------------------------|---------------------------------------------|---------------------------------------------|---------------------------------------------|-----8p7p5-8p7p5-7h8p7-----8p7p5-8p7p5-7h8p7-|--000-------------------000------------------|
------------------------------------------|------------------------------------------|------------------------------------------|------------------------------8-----------|----8p7p5-8p7p5-7h8p7-------------------7-|-000-------------------0-0-0-----0-0-0----|
Guitar 2 :
---------------------------------------------|---------------------------------------------|---------------------------------------------|---------------------------------------------|-----8p7p5-8p7p5-7h8p7-----8p7p5-8p7p5-7h8p7-|--000-------------------000------------------|
------------------------------------------|------------------------------------------|------------------------------------------|------------------------------------------|----8p7p5-8p7p5-7h8p7---------1-----------|-000-------------------0-0-0-----0-0-0--2-|
Guitar 1 :
----------------------------------------------------------------------|----------------------------------------------------------------------|-----10--10---9-------10--10---9-------10--10---9---------------------|------8---8---7--------8---8---7--------8---8---7---------------------|------8---8---7--------8---8---7--------8---8---7---7h8p7----7h8p7----|-000--------------000--------------000--------------------8~-------7~-|
Guitar 2 :
----------------------------------------------------------------------|----------------------------------------------------------------------|----------------------------------------------------------------------|------3---3---2--------3---3---2--------3---3---2---------------------|------3---3---2--------3---3---2--------3---3---2---7h8p7----7h8p7----|-000--3---3---2---000--3---3---2---000--3---3---2---------8~-------7~-|
Both guitars :
-----------------------------|-----------------------------|-----------------------------|-0-0-0-0---0-0-0-0---0-0-0-0-|-0-0-0-0---0-0-0-0---0-0-0-0-|-0-0-0-0---0-0-0-0---0-0-0-0-|
Guitar 1 :
-----------|-----------|---9-----9-|---8-----8-|---7-----7-|-0-----0---|
Guitar 2 :
-----------|-----------|-----------|---2-----2-|---2-----2-|-0-2---0-2-|
2nd verse :
---------------------------------------------|---------------------------------------------|---------------------------------------------|---------------------------------------------|-----8p7p5-8p7p5-7h8p7-----8p7p5-8p7p5-7h8p7-|--000-------------------000------------------|
------------------------------------------|------------------------------------------|------------------------------------------|------------------------------------------|----8p7p5-8p7p5-7h8p7---------------------|-000-------------------x/////////---------|
Guitar 1 :
---------------------------------------------|---------------------------------------------|---------------------------------------------|---------------------------------------------|-----8p7p5-8p7p5-7h8p7-----8p7p5-8p7p5-7h8p7-|--000-------------------000------------------|
------------------------------------------|------------------------------------------|------------------------------------------|------------------------------8-----------|----8p7p5-8p7p5-7h8p7-------------------7-|-000-------------------0-0-0-----0-0-0----|
Guitar 2 :
---------------------------------------------|---------------------------------------------|---------------------------------------------|---------------------------------------------|-----8p7p5-8p7p5-7h8p7-----8p7p5-8p7p5-7h8p7-|--000-------------------000------------------|
------------------------------------------|------------------------------------------|------------------------------------------|------------------------------------------|----8p7p5-8p7p5-7h8p7---------1-----------|-000-------------------0-0-0-----0-0-0--2-|
Guitar 1 :
----------------------------------------------------------------------|----------------------------------------------------------------------|-----10--10---9-------10--10---9-------10--10---9---------------------|------8---8---7--------8---8---7--------8---8---7---------------------|------8---8---7--------8---8---7--------8---8---7---7h8p7----7h8p7----|-000--------------000--------------000--------------------8~-------7~-|
Guitar 2 :
----------------------------------------------------------------------|----------------------------------------------------------------------|----------------------------------------------------------------------|------3---3---2--------3---3---2--------3---3---2---------------------|------3---3---2--------3---3---2--------3---3---2---7h8p7----7h8p7----|-000--3---3---2---000--3---3---2---000--3---3---2---------8~-------7~-|
Bridge: Guitar 1 :
-------------------------------------|-------------------------------------|-------------------------------------|-5----4-----5----4-------------------|-5----4-----5----4-------------------|-5----4-----5----4-----x////////////-|
Guitar 2 :
-----------------------------------------------------------|-----------------------------------------------------------|-----------------------------------------------------------|-----------------------------------------------------------|--------5--------------5--------------5--------------5-----|-55-5-5---8p5---55-5-5---8p5---44-4-4---7p4---44-4-4---7p4-|
Both guitars :
-----------------------------------------------------------|-----------------------------------------------------------|-----------------------------------------------------------|-----------------------------------------------------------|-----4-------------4-------------4-------------4-----------|-4-4---7p4---4-4-4---7p4---3-3-3---7p3---3-3-3---7p3-------|
-----------------------------------------------------------|-----------------------------------------------------------|-----------------------------------------------------------|-----------------------------------------------------------|--------5--------------5--------------5--------------5-----|-55-5-5---8p5---55-5-5---8p5---44-4-4---7p4---44-4-4---7p4-|
-----------------------------------------------------------|-----------------------------------------------------------|-----------------------------------------------------------|-----------------------------------------------------------|-----4-------------4-------------4-------------4-----------|-4-4---7p4---4-4-4---7p4---3-3-3---7p3---3-3-3---7p3-------|
Guitar 1 :
-----------0--------------------------|-----------0--------------------------|-----------0--------------10/-----10/-|-0-------------------------9/------9/-|-0-------------------------8/------8/-|-0----------------------0-------0-----|
Guitar 2 (dots stand for strings beyond the nut)
-----------.--------------------------|-----------.--------------------------|-----------.--------------------------|-0-------------------------8/------8/-|-0-------------------------8/------8/-|-0----------------------0--8/---0--8/-|
-----------------------------|-----------------------------|-----------------------------|-0-0-0-0---0-0-0-0---0-0-0-0-|-0-0-0-0---0-0-0-0---0-0-0-0-|-0-0-0-0---0-0-0-0---0-0-0-0-|
Guitar 1 :
-----------|-----------|---9-----9-|---8-----8-|---7-----7-|-0-----0---|
Guitar 2 :
-----------|-----------|-----------|---2-----2-|---2-----2-|-0-2---0-2-|
----------------------|----------------------|----------------------|-3--0--2--5--3--2--0--|-3--0--2--5--3--2--0--|-3--0--2--5--3--2--0--|
Please rate this tab:
x1.0