Agony Scene - My Dark Desire tab

----------------------------------------------------------------------------
		      My Dark Desire - The Agony Scene
----------------------------------------------------------------------------
Tabbed by: Tim Y. (bleedingx3)
Email: hex_x3@yahoo.com
Aim: TimofBodomxx

Tuning : Drop C ( CGCFAD )

*Note: Use heavy distortion.

Legend 
. Palm Mute
* Natural Harmonic
^ Pinch Harmonic
` Stoccato                      
                 
My Dark Desire |----------------------------------------------||------------------------------------------7*--||----------------------------------------------||---8/7---5/6---0-------8/7---5/6---0----------| |-0-8/7-0-5/6-0-0-----0-8/7-0-5/6-0-0---0------| |-0-8/7-0-5/6-0-0-----0-8/7-0-5/6-0-0---0------|
. . . ` . . . ` .|----------------------------------------------||----------------------------------------------||----------------------------------------------| |---8/7---5/6---0-------8/7---5/6---0-----7^---| Guitar 1 |-0-8/7-0-5/6-0-0-----0-8/7-0-5/6-0-0-000-7^---| Guitar 2 |-0-8/7-0-5/6-0-0-----0-8/7-0-5/6-0-0-000------|
. . . ` . . . ` ...|--------------------------------|-------------------------||--------------------------------|-------------------------| |--------------------------------|-------------------------| (x3) = play |---8/7---5/6---0-----------(x3)-|---8/7---5/6---0-----7^--| riff 3 times|-0-8/7-0-5/6-0-0-000000-000-----|-0-8/7-0-5/6-0-0-000-----| |-0-8/7-0-5/6-0-0-000000-000-----|-0-8/7-0-5/6-0-0-000-----|
. . . ` ...... ... . . . ` ...|-------------------------------|-------------------------||-------------------------------|-------------------------| |-------------------------------|-------------------------| (x3) = play|---8/7---5/6---0----------(x3)-|---8/7---5/6---0-----7^--| riff 3 times|-0-8/7-0-5/6-0-0-00000000------|-0-8/7-0-5/6-0-0-000-----| |-0-8/7-0-5/6-0-0-00000000------|-0-8/7-0-5/6-0-0-000-----|
. . . ` ........ . . . ` ...|-------------------------------|-------------------------||-------------------------------|-------------------------||-------------------------------|-------------------------| (x2) = whole line|---7/6---5/6-----888-555-(x3)--|---8/7---5/6----0----7^--| |-0-7/6-0-5/6-00--888-555-------|-0-8/7-0-5/6-00-0-00-----||-0-7/6-0-5/6-00--888-555-------|-0-8/7-0-5/6-00-0-00-----|
. . .. . . .. ` ..|------------------||------------------||------------------||------------------| |------------------||-4224224224224242-|
................|---------------------------------------------||---------------------------------------------||---------------------------------------------||-0-2-44444444/77776666----44444444/9999\2222-||-0-2-44444444/77776666-44-44444444/9999\2222-||-0-2-44444444/77776666-44-44444444/9999\2222-| . . ..
|-----------------------------------------||-----------------------------------------||-----------------------------------------||-0-2-44444444/77776666----------7--------||-0-2-44444444/77776666-00-9-7-9---9-7-5\-||-0-2-44444444/77776666-00--0-0-0-0-0-0---| . . .. . . . . . .
|---------------------------------------------||---------------------------------------------||---------------------------------------------||-0-2-44444444/77776666-44-44444444/9999\2222-||-0-2-44444444/77776666-44-44444444/9999\2222-||-0-2-44444444/77776666-44-44444444/9999\2222-|
..|----------------------------------------------||----------------------------------------------||--------------------------9-7-9-9/10\9-7/9\7--| -[Guitar 1] (It will line up|-0-2-44444444/77776666-----------7------------| : play guitar 1 slower)|-0-2-44444444/77776666-00-9-7-9-----9-7-5-----| -[Guitar 2]|-0-2-44444444/77776666-00--0-0-0---0-0-0------| . . .. . . . . . .
|-------------------------------|-------------------------||-------------------------------|-------------------------||-------------------------------|-------------------------| (x2) = whole line|---7/6---5/6-----888-555-(x3)--|---8/7---5/6----0----7^--| |-0-7/6-0-5/6-00--888-555-------|-0-8/7-0-5/6-00-0-00-----||-0-7/6-0-5/6-00--888-555-------|-0-8/7-0-5/6-00-0-00-----|
. . .. . . .. ` ..|------------------||------------------||------------------||------------------| |------------------||-4224224224224242-|
................|---------------------------------------------||---------------------------------------------||---------------------------------------------||-0-2-44444444/77776666-44-44444444/9999\2222-||-0-2-44444444/77776666-44-44444444/9999\2222-||-0-2-44444444/77776666-44-44444444/9999\2222-|
..|----------------------------------------------||----------------------------------------------||--------------------------9-7-9-9/10\9-7/9\7--| -[Guitar 1] (It will line up|-0-2-44444444/77776666-----------7------------| : play guitar 1 slower)|-0-2-44444444/77776666-00-9-7-9-----9-7-5-----| -[Guitar 2]|-0-2-44444444/77776666-00--0-0-0---0-0-0------| . . .. . . . . . .
|---------------------------------------------||---------------------------------------------||---------------------------------------------||-0-2-44444444/77776666-44-44444444/9999\2222-||-0-2-44444444/77776666-44-44444444/9999\2222-||-0-2-44444444/77776666-44-44444444/9999\2222-|
..|----------------------------------------------||----------------------------------------------||--------------------------9-7-9-9/10\9-7/9\7--| -[Guitar 1] (It will line up|-0-2-44444444/77776666-----------7------------| : play guitar 1 slower)|-0-2-44444444/77776666-00-9-7-9-----9-7-5-----| -[Guitar 2]|-0-2-44444444/77776666-00--0-0-0---0-0-0------| . . .. . . . . . .
|----------------------||----------------------||--------------(x4)----| |-00---0---00-------7^-| |-00-0-0-0-00----------| |-00-0-0-0-00----------|
. .|----------------------------------||-------------------------------7*-||----------------------------------||-00---0---00---0---00---0---00----| (x2)|-00-0-0-0-00-0-0-0-00-0-0-0-00----||-00-0-0-0-00-0-0-0-00-0-0-0-00----|
. . . . . .|----------------------||----------------------||--------------(x4)----| |-00---0---00-------7^-| |-00-0-0-0-00----------| |-00-0-0-0-00----------|
. .|---------------------||---------------------||---------------------||-0--0--0--0-0-0-||-0--0--0--0-0-0-||-00000000000000-|
. . . . .|---------------------------------------------||---------------------------------------------||---------------------------------------------||-0-2-44444444/77776666-44-44444444/9999\2222-||-0-2-44444444/77776666-44-44444444/9999\2222-||-0-2-44444444/77776666-44-44444444/9999\2222-|
..|----------------------------------------------||----------------------------------------------||--------------------------9-7-9-9/10\9-7/9\7--| -[Guitar 1] (It will line up|-0-2-44444444/77776666-----------7------------| : play guitar 1 slower)|-0-2-44444444/77776666-00-9-7-9-----9-7-5-----| -[Guitar 2]|-0-2-44444444/77776666-00--0-0-0---0-0-0------| . . .. . . . . . .
|---------------------------------------------||---------------------------------------------||---------------------------------------------||-0-2-44444444/77776666-44-44444444/9999\2222-||-0-2-44444444/77776666-44-44444444/9999\2222-||-0-2-44444444/77776666-44-44444444/9999\2222-|
..|----------------------------------------------||----------------------------------------------||--------------------------9-7-9-9/10\9-7/9\7--| -[Guitar 1] (It will line up|-0-2-44444444/77776666-----------7------------| : play guitar 1 slower)|-0-2-44444444/77776666-00-9-7-9-----9-7-5-----| -[Guitar 2]|-0-2-44444444/77776666-00--0-0-0---0-0-0------| . . .. . . . . . .
|---------------------------------------------||---------------------------------------------||---------------------------------------------||-0-2-44444444/77776666-44-44444444/9999\2222-||-0-2-44444444/77776666-44-44444444/9999\2222-||-0-2-44444444/77776666-44-44444444/9999\2222-|
..|----------------------------------------------||----------------------------------------------||--------------------------9-7-9-9/10\9-7/9\7--| -[Guitar 1] (It will line up|-0-2-44444444/77776666-----------7------------| : play guitar 1 slower)|-0-2-44444444/77776666-00-9-7-9-----9-7-5-----| -[Guitar 2]|-0-2-44444444/77776666-00--0-0-0---0-0-0------| . . .. . . . . . .
|---------------------------------------------||---------------------------------------------||---------------------------------------------||-0-2-44444444/77776666-44-44444444/9999\2222-||-0-2-44444444/77776666-44-44444444/9999\2222-||-0-2-44444444/77776666-44-44444444/9999\2222-|
..|----------------------------------------------||----------------------------------------------||--------------------------9-7-9-9/10\9-7/9\7--| -[Guitar 1] (It will line up|-0-2-44444444/77776666-----------7------------| : play guitar 1 slower)|-0-2-44444444/77776666-00-9-7-9-----9-7-5-----| -[Guitar 2]|-0-2-44444444/77776666-00--0-0-0---0-0-0------| . . .. . . . . . .
|------------------------||------------------------||----9-7-9-9/10\9-7/9\7--||-----------7------------||-00-9-7-9-----9-7-5-----||-00--0-0-0---0-0-0------|
.. . . . |----------------||----------------||----------------||---0~~~~~~~~~~~~| |-0-0~~~~~~~~~~~~| |-0-0~~~~~~~~~~~~|
Tap to rate this tab
 
# A B C D E F G H I J K L M N O P Q R S T U V W X Y Z