Agony Scene - Shotgun Wedding tab

Both guitars :

--------------|--------------|--------------|-0----3/6--5--| x5-0----3/6--5--|-0----3/6--5--|
Guitar 1 :
--------------------------------------------|--------------------------------------------|--------------------------------------------|--------------------------------------------|-----5h8p5-5h8p5-3h6p3------5h8p5-3h6p3-----|-0-0--------------------0-0-------------0-6-|
-----------------------------------------------|-----------------------------------------------|-----------------------------------------------|-----------------------------------------------|-----5h8p5-5h8p5-3h6p3-------------------------|-0-0-------------------6h9p6-5h8p5-4h7p4-3h6p3-|
Guitar 2 :
----------------------------------------|----------------------------------------|----------------------------------------|-0----------6--0------------------------|-0----------6--0------------------------|-0------000-6--0-----x/////--x////////--|
Both guitars :
--------------------------------------------|--------------------------------------------|--------------------------------------------|--------------------------------------------|-----5h8p5-5h8p5-3h6p3------5h8p5-3h6p3-----|-0-0--------------------0-0-------------0-6-|
-----------------------------------------------|-----------------------------------------------|-----------------------------------------------|-----------------------------------------------|-----5h8p5-5h8p5-3h6p3-------------------------|-0-0-------------------6h9p6-5h8p5-4h7p4-3h6p3-|
--------------------------------------------|--------------------------------------------|--------------------------------------------|--------------------------------------------|-----5h8p5-5h8p5-3h6p3------5h8p5-3h6p3-----|-0-0--------------------0-0-------------0-6-|
---------------------------------|---------------------------------|---------------------------------|---------------------------------|-----5h8p5-5h8p5-3h6p3-----------|-0-0-------------------0-0-3-2-1-|
Guitar 1 :
--------------------------------------------|--------------------------------------------|--------------------------------------------|--------------------------------------------|-----5h8p5-5h8p5-3h6p3------5h8p5-3h6p3-----|-0-0--------------------0-0-------------0-6-|
-----------------------------------------------|-----------------------------------------------|-----------------------------------------------|-----------------------------------------------|-----5h8p5-5h8p5-3h6p3-------------------------|-0-0-------------------6h9p6-5h8p5-4h7p4-3h6p3-|
--------------------------------------------|--------------------------------------------|--------------------------------------------|--------------------------------------------|-----5h8p5-5h8p5-3h6p3------5h8p5-3h6p3-----|-0-0--------------------0-0-------------0-6-|
---------------------------------|---------------------------------|---------------------------------|---------------------------------|-----5h8p5-5h8p5-3h6p3-----------|-0-0-------------------0-0-3-2-1-|
Guitar 2 :
------------------------------------------------------|------------------------------------------------------|------------------------------------------------------|------------10-------------8-------------10-----------|------------10-------------8-------------10--8-7-6-5--|-0-0-0000-0-10--0-0-0000-0-8--0-0-0000-0-10--8-7-6-5--|
---------------------------------------------------------------|---------------------------------------------------------------|---------------------------------------------------------------|------------10-------------8-------------10--------------------|------------10-------------8-------------10--------------------|-0-0-0000-0-10--0-0-0000-0-8--0-0-0000-0-10--5h8p5-4h7p4-3h6p3-|
Guitar 1 :
-------------------------------------------------------|-------------------------------------------------------|------3---------3---------3----------------------------|------1---------1---------1----------------------------|------1---------1---------1----------------------------|-0-0--1----0-0--1----0-0--1----5h8p5-4h7p4-5h8p5-4h7p4-|
------------------------------------------------------|------------------------------------------------------|------3---------3---------3---------------------------|------1---------1---------1---------------------------|------1---------1---------1-----------------------<7>-|-0-0--1----0-0--1----0-0--1----5h8p5-6h9p6-7h10p7-----|
Guitar 2 :
-------------------------------------------------------|-------------------------------------------------------|------0---------0---------0----------------------------|------3---------3---------3----5h8p5-4h7p4-5h8p5-4h7p4-|------0---------0---------0----------------------------|-0-0--0----0-0--0----0-0--0----------------------------|
------------------------------------------------------|------------------------------------------------------|------0---------0---------0---------------------------|------3---------3---------3-----------------------<7>-|------0---------0---------0----5h8p5-6h9p6-7h10p7-----|-0-0--0----0-0--0----0-0--0---------------------------|
Guitar 1
--------------------------------------------|--------------------------------------------|--------------------------------------------|--------------------------------------------|-----5h8p5-5h8p5-3h6p3------5h8p5-3h6p3-----|-0-0--------------------0-0-------------0-6-|
-----------------------------------------------|-----------------------------------------------|-----------------------------------------------|-----------------------------------------------|-----5h8p5-5h8p5-3h6p3-------------------------|-0-0-------------------6h9p6-5h8p5-4h7p4-3h6p3-|
--------------------------------------------|--------------------------------------------|--------------------------------------------|--------------------------------------------|-----5h8p5-5h8p5-3h6p3------5h8p5-3h6p3-----|-0-0--------------------0-0-------------0-6-|
---------------------------------|---------------------------------|---------------------------------|---------------------------------|-----5h8p5-5h8p5-3h6p3-----------|-0-0-------------------0-0-3-2-1-|
Guitar 1 :
--------------------------------------------|--------------------------------------------|--------------------------------------------|--------------------------------------------|-----5h8p5-5h8p5-3h6p3------5h8p5-3h6p3-----|-0-0--------------------0-0-------------0-6-|
-----------------------------------------------|-----------------------------------------------|-----------------------------------------------|-----------------------------------------------|-----5h8p5-5h8p5-3h6p3-------------------------|-0-0-------------------6h9p6-5h8p5-4h7p4-3h6p3-|
--------------------------------------------|--------------------------------------------|--------------------------------------------|--------------------------------------------|-----5h8p5-5h8p5-3h6p3------5h8p5-3h6p3-----|-0-0--------------------0-0-------------0-6-|
---------------------------------|---------------------------------|---------------------------------|---------------------------------|-----5h8p5-5h8p5-3h6p3-----------|-0-0-------------------0-0-3-2-1-|
Guitar 2 :
------------------------------------------------------|------------------------------------------------------|------------------------------------------------------|------------10-------------8-------------10-----------|------------10-------------8-------------10--8-7-6-5--|-0-0-0000-0-10--0-0-0000-0-8--0-0-0000-0-10--8-7-6-5--|
---------------------------------------------------------------|---------------------------------------------------------------|---------------------------------------------------------------|------------10-------------8-------------10--------------------|------------10-------------8-------------10--------------------|-0-0-0000-0-10--0-0-0000-0-8--0-0-0000-0-10--5h8p5-4h7p4-3h6p3-|
Both guitars :
--------------|--------------|--------------|-0----3/6--5--| x5-0----3/6--5--|-0----3/6--5--|
Guitar 1 :
------------------------------|------------------------------|------------------------------|------------------------------| x10-----------0--------------0-0-|-1h4p1-0-0-0--0-0-1h4p1-0-0-0-|
After 2 bars guitar 2 :
------------------------------|------------------------------|------------------------------|------------------------------| x8-----------0--------------0-0-|-1h4p1-0-0-0--0-0-1h4p1-0-0-0-|
-----------------------------------------------------------|-----------------------------------------------------------|-----------------------------------------------------------|-----------------------------------------------------------| x4-------------------0-------------------------------0--0-0--|-1h4p1-0-0-0-0-0-0-0-0-0-0-0-0-0-1h4p1-0-0-0-0-0-0-0--0-0--|
---------|---------|---------|-6--6--0-|-6--6--0-|-6--6--0-|
Play verse twice :
--------------------------------------------|--------------------------------------------|--------------------------------------------|--------------------------------------------|-----5h8p5-5h8p5-3h6p3------5h8p5-3h6p3-----|-0-0--------------------0-0-------------0-6-|
-----------------------------------------------|-----------------------------------------------|-----------------------------------------------|-----------------------------------------------|-----5h8p5-5h8p5-3h6p3-------------------------|-0-0-------------------6h9p6-5h8p5-4h7p4-3h6p3-|
--------------------------------------------|--------------------------------------------|--------------------------------------------|--------------------------------------------|-----5h8p5-5h8p5-3h6p3------5h8p5-3h6p3-----|-0-0--------------------0-0-------------0-6-|
---------------------------------|---------------------------------|---------------------------------|---------------------------------|-----5h8p5-5h8p5-3h6p3-----------|-0-0-------------------0-0-3-2-1-|
------------------------------------------------------|------------------------------------------------------|------------------------------------------------------|------------10-------------8-------------10-----------|------------10-------------8-------------10--8-7-6-5--|-0-0-0000-0-10--0-0-0000-0-8--0-0-0000-0-10--8-7-6-5--|
---------------------------------------------------------------|---------------------------------------------------------------|---------------------------------------------------------------|------------10-------------8-------------10--------------------|------------10-------------8-------------10--------------------|-0-0-0000-0-10--0-0-0000-0-8--0-0-0000-0-10--5h8p5-4h7p4-3h6p3-|
---------|---------|---------|-6--6--0-|-6--6--0-|-6--6--0-|
Tap to rate this tab
 
# A B C D E F G H I J K L M N O P Q R S T U V W X Y Z