Vivid tab with lyrics by Agony Scene - Easy chords and tabs for guitar

Agony Scene – Vivid tab

Tuning : C G C F A D

h above note means harmonic
<> artificial harmonic

Intro
Guitar 2 (2 times) :

-------------------------------|-------------------------------|-------------------------------|-------------------------------|-------------------------------|-1-1-1-/8-8-8-7-7-4-4-7-7-3-3--|
-----------------------------|-----------------------------|-----------------------------|-----------------------------|-----------------------------|-1-1-1-/8-8-8-7-7-4-4-7-7-3--|
Guitar 1 comes in on second time :
------------| |--------------|------------| |--h-hh--h--hh-|------------| Then : |--4-44--4--44-|------------| |--4-44--4--44-|-0-0--0--00-| |--------------|-0-0--0--00-| |--------------|
Full volume : Guitar 1 :
-------------------------------|-------------------------------|-------------------------------|-------------------------------| x3-------------------------------|-1-1-1-/8-8-8-7-7-4-4-7-7-3-3--|
-----------------------------|-----------------------------|-----------------------------|-----------------------------|-----------------------------|-1-1-1-/8-8-8-7-7-4-4-7-7-3--|
Guitar 2 :
-------------------------------|-------------------------------|-------------------------------|-------------------------------| x3-1-1-1-/8-8-8-7-7-4-4-7-7-3-3--|-1-1-1-/8-8-8-7-7-4-4-7-7-3-3--|
-----------------------------|-----------------------------|-----------------------------|-----------------------------|-1-1-1-/8-8-8-7-7-4-4-7-7-3--|-1-1-1-/8-8-8-7-7-4-4-7-7-3--|
Guitar 1 :
-----------------|-----------------|-----------------|-0------------0--|-0------------0--|-0-----000h40-0--|
Guitar 2:
----------------------|----------------------|----------------------|---h-h---h---h-h---h--|---5-5---5---5-5---5--|-0-----0---0-----0----|
Guitar 1 :
-----------------------------|-----------------------------|-----------------------------|-1--0-0-4~-------------------|-1--0-0-----0-0-0-0-0-0-0-0--|-1--0-0-----0-0-0-0-0-0-0-0--|
Guitar 2 :
-----------------------------|--------5~-------------------|-----------------------------|-1--0-0----------------------|-1--0-0-----0-0-0-0-0-0-0-0--|-1--0-0-----0-0-0-0-0-0-0-0--|
Guitar 1 :
--------------|--------------|--------------|-0------1--1--|-0------1--1--|-0------1--1--|
Guitar 2 :
---------------------------|---------------------------|---------------------------|---------------------1--1--|-0-0--0-0--0-0--0-0--1--1--|-0-0--0-0--0-0--0-0--1--1--|
Pick up the pace : Both guitars :
---------------------------|---------------------------|---------------------------|---------------------1--1--|-0-0--0-0--0-0--0-0--1--1--|-0-0--0-0--0-0--0-0--1--1--|
Guitar 1 and 2 :
--------------------|--------------------|--------------------|-0--0--0--0--1-1-1--|-0--0--0--0--1-1-1--|-0--0--0--0--1-1-1--|
Guitar 3 :
------------------------------|-16---16---16---16---17--17---|-18b--18b--18b--18b--19b-19b--|------------------------------|------------------------------|------------------------------|
Slow it down
------------------| |-------|------------------| |-------|------------------| |-------|-2-0-3-1-5-4-2-4--| Guitar 1 throws in a |-------|-2-0-3-1-5-4-2-4--| |--<2>--|-2-0-3-1-5-4-2-4--| |-------|
Guitar 1 :
------------------|------------------|------------------|------------------|------------------|-000-2h5-000-3h1--|
Guitar 2 :
------------------|------------------|------------------|-0---0---0---0-0--|-0---0---0---0-0--|-0---0---0---0-0--|
Both guitars :
------------------|------------------|------------------|------------------|------------------|-000-2h5-000-3h1--|
Guitar 1 :
---------------------|---------------------|---------------------|-----hh-----hh-------|-----55-----55-------|-000----000----000-3-|
Guitar 2 :
------------------|------------------|------------------|------------------|------------------|-000-2h5-000-3h1--|
Guitar 1 :
------------------------|------------------------|------------------------|-2-2-2h3-2-2-2h3-2-2h5--|-2-2-2h3-2-2-2h3-2-2h5--|-2-2-2h3-2-2-2h3-2-2h5--|
Guitar 2 :
---------------------------|---------------------------|---------------------------|-2----2----2----2----------|-2----2----2----2----------|-2----2----2----2---/////--|
------------------------|------------------------|------------------------|-2-2-2-3-2-2-2-3-2-2-5--|-2-2-2-3-2-2-2-3-2-2-5--|-2-2-2-3-2-2-2-3-2-2-5--|
Guitar 3 last bar :
---------------------------|---------------------------|-------------------------4-|-2~--2~--2~--2~--2~--2~--2-|---------------------------|---------------------------|
Please rate this tab:
x1.0