Agustin Pio Barrios Mangore – Serenata Morisca tab

Serenata Morisca - Agustin Barrios Mangore (1885-1944)
Arranged by Stover
Tabbed by ocajinoj

Allegro Moderato (120 bpm)   -   4/4


|----------------------------|--------------0--||----------------------------|--------------2--||-2--2---2--0------------0-3-|-2---------2--2--||-3----5----3--3-2-0-2h3-----|-3---------3--2--||-0--------(0)---------------|-0--0(12)--0--0--||-0--------(0)---------------|-0---------0-----|
|---5-(5)---5h6-5----3-(3)-1h3-1-||-6-------4-------3-----1--------||-7-------5-------3-----2--------||--------------------------------||--------------------------------||--------------------------------|
|--------------------|-10p9-10-12-----10p9-10-12-----||---4-(4)-3-4-3-2----|------------11-------------10--||-3-------------0----|-------------------------------||-5-------------2----|-------------------------------||---------------0----|-------------------------------||--------------------|-------------------------------|
|-10p9-10-12----10p9-10-12-------|-------------||------------9-------------------|-------------||--------------------------<12>--|-(12)--------||--------------------------------|-------------||--------------------------<12>--|-(12)--------||--------------------------------|-------------|
|-10p9-10h12-13p10-------------------------|-------0-1-0---0-5------------||------------------11p10-9-------0---------|---0-3-------3-----5---5------||--------------------------10------1-------|-1-------------------6--------||-----------------------------12-----3-0h3-|-------------------------<7>--||------------------------------------------|------------------------------||------------------------------------------|------------------------------|
|---------------------------------|----------------------||---------------------------------|----------------------||-------------0-2-3p2-------------|----------------------||-------0-2h3---------5-3-2h3-5p3-|-2p0---0-2p0----------||-0-2h4---------------------------|-----3-------3-1-0----||---------------------------------|----------------------|
|------------||------------------|-5h6p5-3---3-5---5h6p5-3---3-5----||------------||o-----------------|---------6---------------6--------||-2--2--2----||------------------|----------------------------------||-2--0--2----||------0-------0---|-------------0---------------0----||-4--0--4----||o---0---0---0---0-|---------0-----0---------0-----0--||-5--3--2----||--0-------0-------|-0---------------0----------------|
|-5h6p5-3---3-5-3-1-0---0-1-3-1h3p1-0-----|-------1-0h1p0----------------||---------6-----------3---------------3-1-|---1-3---------3-1------------||-----------------------------------------|-3-----------------3-2--------||-------------0---------------0-----------|---------3---------------0-2S=||---------0-------0-------0-----------0---|-----0-----------0-----0------||-0-------------------0-------------------|-0-------------------0--------|
|-----------------|-------------------------------5-||-----------------|---------------------2-3-5-6-8---||-2---0-----------|-------0-2-3-5-3-2h3-------------||-3-0-2---3---2---|-0h2-3---------------------------||-------3-5-1-3-0-|-1---------------0---------------||-----------------|---------------------------------|
1.|-6-8-6-5---------0-1-0-----------|----------------------------------|||---------8-6-5---------3-1-3-1---|---------------------------------o|||---------------7-3-------------3-|-2--------------------------------|||-5---------------0---------------|-2h3-2-0--------------------------|||---------------------------------|---------3h5-3-1-0h1-0-----------o|||---------------------------------|-----------------------5-3h5-3-2--||
2.|---------------------0-1-3-5-7-9-|-10---------------||------------------------||-----------------2-3-------------|------------------||o-----------------------||-2---------------0---------------|-10---------------||-----------2------------||-2h3-2-0-------------------------|------0-------0---||--0-2-3-5---------------||---------3h5-3-1-0---------------|----0---0---0---0-||o-------------------0-4-||---------------------------------|--0-------0-------||--0-------(0)-2-3-5-----|
|---0-1-3--5------------|-----5-6-8---(8)-10-8-------8------||-3-------------------2-|-6-8-----6-6--8-------11-10---8-10-||-------------------2---|-7-------7-7--9-----------8--------||-0-------(0)-2-3-5-----|-----------------------------------||-----------------------|-----------------------------------||-----------------------|-----------------------------------|
|---6-----(6)-8-6-5-(5)-----0--||-6---------------------8------||-7-----------------------7----||---8-7-8--5---------8---------||------------------------------||------------------------------|
1.|---0-----0---------|-6-5-3-1-0---1-0-|------------------|||---------3---------|-2-3-------3-----|-3---------------o|||-6-------3-0-2-----|-----3-2-0---1-0-|------------------|||-7-------------3-0-|-2-3---0---3-----|-3---0-------0----|||---7-4-0-----------|-----4---1-0-2-4-|---0---0---0---0-o|||-------------------|-----------------|-0-------0--------||
2.|-6-5-3-1-0-----0-|-1---------------|-5h6p5-3---3-5---5h6p5-3---3-5----||-2-3-------3-1---|-----------------|---------6---------------6--------||-----3-2-0-1-2-3-|-2---------------|----------------------------------||-2-3---0-----3-6-|-----3-------3---|-------------3---------------3----||-----4---1-2-3---|---3---3---3---3-|---------3-----3---------3-----3--||---------------0-|-3-------3-------|-3---------------3----------------|
|-5h6p5-3---3-5-3-----------3-------------|-----------------------------||---------6-------6-5-3-5-6---6-5-6-5-3---|-----3-6-5h6p5-3-------------||---------------------------------------5-|-3-5-------------5-3---------||-------------3---------------3-----------|---------3-----------7---3---||---------3-------3-------3-----------3---|-----3-----------3-----3---3-||-3-------------------3-------------------|-3-------------------3---7---|
|-------0-1-3-5-6-8-------|-------5-6-8-10-12-13----(13)-10-12-13-||---1-3-------------------|---5-8----------------10---------10----||-0-----------------0-----|-5-----------------10-----10-----------||-2-----------------8-----|---------------------------------------||-------------------7-5-7-|---------------------------------------||-------------------------|---------------------------------------|
|-12----10-12-10----------(10)-----8-10-||----13------------------------11-------||-------12-------10----10---------10----||-14----------12----12-----12-----------||---------------------------------------||---------------------------------------|
|-8-5-6-8-6-3-5-6-5-1-3---|-1----------------|||-----5-------3-----------|------------------|||-5-------3-------5-2-3---|-2----------------|||-----------------------2-|-----3-------3----|||---------------------3---|---3---3---3---3--|||-------------------------|-3-------3--------||
||--5h6p5-3---3-5---5h6p5-3---3-5---|-5h6p5-3---3-5-3-----------3--------------|||o---------6---------------6-------|---------6-------6-5-3-5-6---6-5-6-5-3----|||----------------------------------|---------------------------------------5--|||--------------3---------------3---|-------------3---------------3------------|||o---------3-----3---------3-----3-|---------3-------3-------3-----------3----|||--3---------------3---------------|-3-------------------3--------------------|
|-----------------------------|-----------------------------||-----3-6-5h6p5-3-------------|----------1-------------3----||-3-5-------------5-3---------|-----0-----------0-2---------||---------3-----------7---3---|-2h3---0-------3-----3-----0-||-----3-----------3-----3---3-|-3-------(3)-3-5-------(5)---||-3-------------------3---7---|-----------------------------|
|----------0-------------1----|---------6-----------||-------------------1---------|-----3---------------||-0h2-3-0-------2h3---2-------|-3-5---3---------0-2-||-2-------(2)-2-3-------(3)-3-|-5-----------0-2-----||-----------------------------|-----------1---------||-----------------------------|---------------------|
|-(6)-5-3-------------------------||---------0---5-9-12-15-||---------6-5-3-------------------||-------2---------------||--3------------5-3-2-0-----------||-----2-----6-6-9-12-15-||-----------------------3-2-0-----||---2-------------------||-----------------------------3-1-||-0---------------------||---------------------------------||-----------------------|
|-15-13-15-13-12-10-12-10-8-6-|-5-6tr8-5-6tr8-5-------||-----------------------------|-----------------------||-15-14-15-14-12-10-10-10-9-7-|-6-7----6-7----6-------||-----------------------------|-----------------8-7---||-----------------------------|-----------------------||-----------------------------|---------------------8-|
|---------------0-5-|-3-5-3-1-0---0-------||---2---2-----2---2-|-----------3---3-1---||---2---2---2---2---|-3-5-3-2-0---0-----3-||---2---2-----------|-----------3---3-2-0-||-0---0---0---------|---------------------||-------------------|---------------------|
|-----------0-1tr3---1-0tr1---0-|-1tr3---1-0tr1---0-1tr3---1-3tr5---3-||-------2-3--------3--------3---|------3--------3--------3--------6---||-2-2-3------------2--------0---|------2--------0--------2------------||-------------0-----------------|-0-----------------0-------------5---||-4--------------------0--------|----------0-----------------3--------||-------------------------------|-------------------------------------|
|---5---3---1---3-|---5---3---1---3-|-5----------------|||---6---5---3-----|---6---5---3-----|-----------------o|||---5---5---3---3-|---5---5---3---3-|-5----------------|||-3-------0-----2-|-3-------0-----2-|-----3-------3----|||-----0-3-----3---|-----0-3-----3---|---3---3---3---3-o|||-----------------|-----------------|-3-------3--------||
|-----5-----5-----5-----5-|-----5-----5-----5-----5-||---2-----3-----4-----5---|---6-----8-----5-----3---||-------------------------|-------------------------||---2-----3-----4-----5---|---7-----8-----5-----3---||-0-----0-----0-----0-----|-0-----0-----0-----0-----||-------------------------|-------------------------|
|---5---5---5---5---5---5---5---5-|---5---5---5---5---5---5---5---5-||-----2-------3-------4-------5---|-----6-------8-------5-------3---||---------------------------------|---------------------------------||-----2-------3-------4-------5---|-----7-------8-------5-------3---||-0-------0-------0-------0-------|-0-------0-------0-------0-------||---------------------------------|---------------------------------|
|-----------0-5p0-8p5-12p9-17-17-||---------2----------------------||-------2------------------14----||-----2--------------------------||-0h4----------------------------||--------------------------------|
|-17-17-17-17-17-17-17-17-12-|-13-10-17-12-13-10-17-10-||----------------------------|----------------------12-||-14-14-14-14-14-14-14----12-|----10----12----10--0-12-||-------------------------11-|----12----11----12-------||-----------------------0----|--------0----------------||----------------------------|--0-----------0----------|
|-12-8----10-9----17-12-|-13-10-17-12-13-10-17-10-|-12-8----10-9-5-3-6-||----8-11------10-------|----------------------12-|----8-11------5---3-||----9----10----9----12-|----10----12----10--0-12-|----9----10---6---3-||-10----8-12-7-11----11-|----12----11----12-------|-10----8-12-7---5---||------------------0----|--------0----------------|--------------------||-----------------------|--0-----------0----------|--------------------|
|-5---0-3-1-----0-|--------------|----------------------------------||---6---1---3-1---|-3-----1------|----------------------------------||---7---0---2---0-|---3-2---3----|---------3-0---0---2--------------||-3-7-2---0-3---2-|---3---2-0----|-3-0---0-----4---3---5-3-2-5-3-2--||-------------3---|-1-5-0-3------|-----4----------------------------||-----------------|---------5----|----------------------------------|
|-----------------------------|---------------------3--5--9-||-----------------------------|-------------2-3-5-6-------8-||-----------------------------|-------0--2--0---------------||-0-3-2-0---2-0-----0---------|-0h2-3---------3-------(3)---||---------3-----3-1---3-1-0-4-|-------------0-------------0-||-----------------------------|-0-------(0)---0-------(0)---|
|-10-12-13p12-10-8-6-5-3h5-6p5-3-------|-------------------------------||--------------------------------6-5-3-|-2-3-2-----------------------2-||-10-------------------0---------------|-0-----3-2-0-----------0--2--0-||--0-----------------------------------|-------------3-2-0h2-3---------||--------------------------------------|-0---------------------------0-||----------------------5---------------|-----------------0-------(0)---|
|-------3--5--9-10-12-13p12-10-8-6-5-|-3h5-6p5-3-----------------------||-3-5-6-------8----------------------|-----------6-5-3-2-3-2-----------||---------------10-------------------|-0---------------0-----3-2-0-----||-3-------(3)----0-------------------|-----------------------------3-2-||-------------0----------------------|-----------------0---------------||-0-------(0)------------------------|-5-------------------------------|
|---------------------|---0-1-3--5------------||---------------------|-3-------------------2-||-------0-2-----------|-----------------0-2---||-0h2-3---------------|-0-------(0)-2-3-------||-----------------0-4-|-----------------------||-0-------0-2-3-5-----|-----------------------|
|-----5-6--8----(8)-10-8-6-5-8---5-||-6-8------6--6--8-------------8---||-7-------(7)-7--9---------8-------||----------------------------------||----------------------------------||----------------------------------|
|---6-----6-8-6-5-(5)-----0-|---0-------5-(5)-5-6p5--||-6-------------------8-----|-2-------6----4---------||-7----------------7----7---|-2-------7----5---------||---8-7-8-5-----------------|---2--------------------||---------------------------|-----4-0----------------||---------------------------|------------------------|
|---3-(3)-1-3p1-----------0---||-3----1----------4-(4)-3---3-||-3----2--------3----2--------||---------------5----3--------||-----------------------------||-----------------------------|
|---------------------------------------5--|----------|||-2-----------------------3p2h3h5p3p2h3-2--|-3--------|||-0-----------------0h2h3---------------0--|----------|||-2-----------0h2h3------------------------|-3--------|||-0---0-0h2h4---------------------------0--|-0--------|||------------------------------------------|-0--------||
Tablature Legend ---------------- h - hammer-on p - pull-off tr - trill Misc Legend ----------- ||o - repeat start o|| - repeat end *************************************************************************************** * Generated using Power Tab Editor by Brad Larsen - http://powertab.guitarnetwork.org * ***************************************************************************************
Please rate this tab:
x1.0