Ai Otsuka - Yumekui tab

Yumekui Guitar 1 by Bboy Petree

I must say that no one was even going to attempt to do this despite that this is a dope
song.  So I thought I'd just do it myself.  My first tab ever so some things might not
accurate but I tried to get things as close as I could.  If anyone has any corrections, 
email address is listed at the bottom; if someone knows the bridges in this song please
me cause that was the only part i couldn't figure out.  I plan to try to write the 
guitar also but any help would be great if possible.


Capo on 1

I just used distortion the whole way (cant hear distortion one high notes during the
so its your choice to turn on

chorus pedal during the ringing part or not)


Intro

|--------------------------------------------------||--------------------------------------------------||---------------------------------------------13---||---------4---------5---------6------11-12-13------||---2-2-2-----3-3-3-----4-4-4----------------------||--------------------------------------------------|
|--------------------------------------------------||--------------------------------------------------||------------------------------------12-13-12------||---------4---------5---------7---------------13---||---2-2-2-----3-3-3-----5-5-5----------------------||--------------------------------------------------|
|--------------------------------------------------||--------------------------------------------------||------------------------------------12-13-12------||--------4---------5----------8---------------13---||---2-2-2-----3-3-3-----6-6-6----------------------||--------------------------------------------------|
|------------------------------------------------------||------------------------------------------------------||-------10---------12---13------13-12----13-13-12------||-------10---------12---13------------13----------13---||---8-8------10-10-------------------------------------||------------------------------------------------------|
Pre Verse
|-----------------------------||-----------------------------||---12---13---8---6---5---6---| x3|---x----x----x---x---x---x---||---10---11---6---4---3---4---||---11---12---7---5---4---5---|
|---------------------------------||---------------------------------||---12---13---8---6---5---6---5---||---x----x----x---x---x---x---x---||---10---11---6---4---3---4---4---||---11---12---7---5---4---5---5---|
Verse (Distortion) (come in after 4th bass guitar verse repeats)
|---4-4-4---| or |---4-4-4---||---4-4-4---| |---0-0-0---||---0-0-0---| |---0-0-0---||---0-0-0---| |---0-0-0---||---3-3-3---| |---3-3-3---||---4-4-4---| |---4-4-4---| (play this once then move on to the next part before
bass guitar and other guitar plays verse for the 5th time) (this might be not fully accurate)
|--------------------------||--------------------------||--------------------------| x4|---5-3-0----5-4-3-4-5-----||----------4-----------4---||--------------------------|
Bridge ??? Chorus (note: no strum play each note once)
|------------------------------------------||------------------------------------------||---10---12-13-14-15-9---7------5-7-8-13---||----8---10-11-12-13-7---5------3-5-6-11---||----9---11-12-13-14-8---6------4-6-7-12---||------------------------------------------|
|----------------------------------------||----------------------------------------||---10---12-13-14-15-9------12-13-12-9---||----8---10-11-12-13-7------10-11-10-7---||----9---11-12-13-14-8------11-12-11-8---||----------------------------------------|
|---------------------------------------------------------||---------------------------------------------------------||---10---12-13-14-15-10-18-17-16------10-----12------13---||----8---10-11-12-13--8-16-15-14------8------10------11---||----9---11-12-13-14--9-17-16-15------9------11------12---||---------------------------------------------------------|
Pre Verse
|-----------------------------||-----------------------------||---12---13---8---6---5---6---| x3|---x----x----x---x---x---x---||---10---11---6---4---3---4---||---11---12---7---5---4---5---|
|---------------------------------||---------------------------------||---12---13---8---6---5---6---5---||---x----x----x---x---x---x---x---||---10---11---6---4---3---4---4---||---11---12---7---5---4---5---5---|
Solo (Again come in after 4th bass guitar verse repeats) (play with chorus and vibrato every note)
|---------------------------------------||---------------------------------------||---------------------------------------||---------------------------------------||-----------16--------------------------||---15--------------18---20---18---20---|
|--------------------------------||--------------------------------||--------------------------------||--------------------------------||--------------------------------||---15------16------20------16---|
Solo
|---------------------------||---------------------------||---8-6-5-6-5-4-5-----------| x2|-----------------10-8-10---||---------------------------||---------------------------|
|------------------------------||------------------------------||-----------10-----------------||---10---10------10-8-10-8-7---||------------------------------||------------------------------|
|-------------------------------------------||-------------------------------------------||-------------------------------------------||---8---8-9-10---10-11-12---12-13-14---15---||-------------------------------------------||-------------------------------------------|
2nd Bridge ??? Chorus (Tried my best)
|------------------------------------------||------------------------------------------||---10---12-13-14-15-9---7------5-7-8-13---||----8---10-11-12-13-7---5------3-5-6-11---||----9---11-12-13-14-8---6------4-6-7-12---||------------------------------------------|
|----------------------------------------||----------------------------------------||---10---12-13-14-15-9------12-13-12-9---||----8---10-11-12-13-7------10-11-10-7---||----9---11-12-13-14-8------11-12-11-8---||----------------------------------------|
|---------------------------------------------------------||---------------------------------------------------------||---10---12-13-14-15-11-18-17-16------10-----12------13---||----8---10-11-12-13--9-16-15-14------8------10------11---||----9---11-12-13-14-10-17-16-15------9------11------12---||---------------------------------------------------------|
|------------------------------------------||------------------------------------------||---10---12-13-14-15-9---7------5-7-8-13---||----8---10-11-12-13-7---5------3-5-6-11---||----9---11-12-13-14-8---6------4-6-7-12---||------------------------------------------|
|----------------------------------------||----------------------------------------||---10---12-13-14-15-9------12-13-12-9---||----8---10-11-12-13-7------10-11-10-7---||----9---11-12-13-14-8------11-12-11-8---||----------------------------------------|
|---------------------------------------------------------------------------------------||---------------------------------------------------------------------------------------||---10---12-13-14-15-11-18-17-16----10------12------13------8------10------12------15---||----8---10-11-12-13--9-16-15-14-----8------10------11------6-------8------10------13---||----9---11-12-13-14-10-17-16-15-----9------11------12------7-------9------11------14---||---------------------------------------------------------------------------------------|
Solo (This I'm sure is pretty accurate)
|----------------------------------------||----------------------------------------||------------17-15---------------13-13---||---15-17-18---------17-15-14-13---------||----------------------------------------||----------------------------------------|
|------------------------------------------------------||------------------------------------------------------||------------17-15-------------------------------------||---15-17-18---------17-15-14-13-13-19---17-16-17-17---||------------------------------------------------------||------------------------------------------------------|
|----------------------------------------------------------------||----------------------------------------------------------------||---------------------------------------------------12-13-12-----||------------17------------19-----------16-------------------13--||---15-15-15------17-17-17-----14-14-14--------------------------||----------------------------------------------------------------|
|---------------------------------------------||---------------------------------------------||---------------------------------------------||------------17------------19------------21---||---15-15-15------17-17-17------19-19-19------||---------------------------------------------|
|-----------||---12-13---||---x--x----||---10-11---||---11-12---||-----------|
For any corrections you find please email me at www.bboypetree@gmail.com
Tap to rate this tab
 
# A B C D E F G H I J K L M N O P Q R S T U V W X Y Z