Aiden – I Set Mt Friends On Fire tab

this is i set my friends on fire by aiden
and i made it and im dave gould
if u dont like it or something email me davegould41@aim.com
ok here it goes....

.=palm mute
/=slide
>=hold

)------------------------------------------------|x2)------------------------------------------------|)------------------------------------------------|)--4-3-4--111-4-3-4-222-4-3-4-444-4-3-4-6-4-3----|)---------111-------222-------444-------------4--|)---------000-------222-------444----------------|
... ... ...)------------------------------------------------|x2)------------------------------------------------|)------------------------------------------------|)--0-0-0-0--4--0-0-0-0--4--0-0-0-0--4--6-6-6-4-3-|)--0-0-0-0--2--0-0-0-0--2--0-0-0-0--2--4-4-4-4-4-|)--0-0-0-0-----0-0-0-0-----0-0-0-0---------------|
)-----------------------------|)-----------------------------|)-----------------------------|)-----88-66-------------------|)--66-------88-99-66-88-------|)-----------------------99----|
)-----------------------------|)-----------------------------|)-----------------------------|)----8-6----------------------|)--6-----8-9-6-8--------------|)----------------9------------|
while the fat guy is playing that(the guy is awsome tho)guitar 2 is playing this...
)--------------------------|)--------------------------|)--------------------------|)--------------------------|)--6-9-8-------6-9-8-------|)--------6-8-9-------6-8-9-|
)-----------------------------------|)----6-----6-----9----7-----7-6-----|)------6-----6-----6----6-----------|)--6-----6-----6-----6----6---------|)-----------------------------------|)-----------------------------------|
)-----------------------------------|)----6-----6-----7----9-----7-6-----|)------6-----6-----6----6-----------|)--6-----6-----6-----6----6---------|)-----------------------------------|)-----------------------------------|
)---------------------------------------------|)---------------------------------------------|)--333333-333---------------------------------|)--333333-333-666666-666-444444-444-33333-333-|)--111111-111-666666-666-444444-444-33333-333-|)-------------444444-444-222222-222-11111-111-| ... ... ... ...
)------------------------------------------------|)------------------------------------------------|)--333333-333---------------------------------3--|>>)--333333-333-666666-666-444444-444-33333-333-3--|>>)--111111-111-666666-666-444444-444-33333-333-1--|>>)-------------444444-444-222222-222-11111-111----| ... ... ... ...
thank you...i kno u loved it so dont report it as a bad tab..... ....AIDEN ROCKS
Please rate this tab:
x1.0