Aim For The Sunrise - At Least I Live As I Believe tab

Aim For The Sunrise - At Least I Live As I Believe

SO, this is played in Drop D tuning! I know they're playing in Drop B but I
don't wanna bother to tune down my guitar everytime I'm playing this so I made this x)

Drop D, E-B-G-D-A-D


-----------------------------------------------------|-----------------------------------------------------|-----------------------------------------------------|-----------------------------------------------------|-----------------------------------------------------|-----------------------------------------------------|
-----------------------------------------------------|-----------------------------------------------------|-----------------------------------------------------|-----------------------------------------------------|--4~---44---4----44---44--44-44-44--44--44-44-44-2-5-|--2~---22---2----22---22--22-22-22--22--22-22-22-----|
-----------------------------------------------------|-----------------------------------------------------|-----------------------------------------------------|-----------------------------------------------------|--44--44-44-44--44--44-44-44--2-5-4------------------|--22--22-22-22--22--22-22-22------2------------------|
-----------------------------------------------------|--------------13-------------------------------------|-----------------------------------------14----------|-9--12--9--12----9--12--9--12-11--9--12--------------|-----------------------------------------------------|-----------------------------------------------------|x8 (let 14 ring at 8)
-----------------------------------------------------|-----------------------------------------------------|-----------------------------------------------------|----------------------------------------4------------|-----7----7----7----7----7-----4----4---------5----2-|-555--555--555--555--555---222--222--222--222--222---|
-----------------------------------------------------|-----------------------------------------------------|-----------------------------------------------------|-444-444-444-444--444-444-444-444--------------------|-222-222-222-222--222-222-222-222--------------------|-----------------------------------------------------|
-----------------------------------------------------|-----------------------------------------------------|-----------------------------------------------------|----------------------------------------4------------|-----7----7----7----7----7-----4----4---------5----2-|-555--555--555--555--555---222--222--222--222--222---|
-----------------------------------------------------|-----------------------------------------------------|-----------------------------------------------------|-----------------------------------------------------|-444-444-444-444---444-444-444-444-------------------|-222-222-222-222---222-222-222-222-------------------|
-----------------------------------------------------|-----------------------------------------------------|-999-777------------999-111111-77777777--------------|---------9999999999----------------------------------|-----------------------------------------------------|-----------------------------------------------------|
-----------------------------------------------------|-----------------------------------------------------|-999-777------------999-111111-7777777777------------|---------9999999999----------------------------------|-----------------------------------------------------|-----------------------------------------------------|
-----------------------------------------------------|-----------------------------------------------------|-999-777------------999-111111-14141414141414141414--|---------9999999999----------------------------------|-----------------------------------------------------|-----------------------------------------------------|
-----------------------------------------------------|-----------------------------------------------------|-999-777------------999-111111-7777777777------------|---------9999999999----------------------------------|-----------------------------------------------------|-----------------------------------------------------|
-----------------------------------------------------|-----------------------------------------------------|-999-777---------------------------------------------|---------99-faaaade...~------------------------------|-------------------------------------------9--9--9---|-------------------------------------------9--9--9---|
-----------------------------------------------------|-----------------------------------------------------|-----------------------------------------------------|-----------------------------------------------------|--999-9-999-9----999-9-999-9-------------------------|--999-9-999-9----999-9-999-9----9-11-9-12-9----------|
-----------------------------------------------------|-----------------------------------------------------|-----------------------------------------------------|-----------------------------------------------------|--999-9-999-9----999-9-999-9----999-999-9------------|--999-9-999-9----999-9-999-9----999-999-9------------|
-----------------------------------------------------|-----------------------------------------------------|-----------------------------------------------------|-----------------------------------------------------|--9999999999---999--999999999----9-9-9---------------|--9999999999---999--999999999----9-9-9---------------|
-----------------------------------------------------|-----------------------------------------------------|--6-6-6-6-6-6-6-6-----------6-6-6-6-4-4-4-4----------|--x-x-x-x-x-x-x-x--4--4--4--x-x-x-x-x-x-x-x----------|--5-5-5-5-5-5-5-5--2--2--2--5-5-5-5-2-2-2-2----------|-----------------------------------------------------|
-----------------------------------------------------|-----------------------------------------------------|-----------6-6-6-6-6-6-6-6---------------------------|-----------x-x-x-x-x-x-x-x---------------------------|--4--4--4--5-5-5-5-5-5-5-5---------------------------|--2--2--2--------------------------------------------|
--10-9-7----7-9-----10-9-7----7-9-10~--12~-----------|---------10-----7~---------10------------------------|-----------------------------------------------------|-----------------------------------------------------|-----------------------------------------------------|-----------------------------------------------------|
--10-9-7----7-9-----10-9-7----7-9-10~--12------------|---------10-----7~---------10------------------------|-----------------------------------------------------|-----------------------------------------------------|-----------------------------------------------------|-----------------------------------------------------|
--1414141414141414-15151515-14141414-----------------|-----------------------------------------------------|-----------------------------------------------------|-----------------------------------------------------|-----------------------------------------------------|-----------------------------------------------------|
-----------------------------------------------------|-----------------------------------------------------|-----------------------------------------------------|-----------------------------------------------------|---999-999-999-999--9999-999-999-999-999-999-999-----|---999-999-999-999--9999-999-999-999-999-999-999-----|
-----------------------------------------------------|-----------------------------------------------------|-----------------------------------------------------|-----------------------------------------------------|---999-999-999-999--9999-999-999-999-999-999-999-----|---999-999-999-999--9999-999-999-999-999-999-999-----|
-----------------------------------------------------|-----------------------------------------------------|-----------------------------------------------------|-----------------------------------------------------|---9999-999-999-999-999-999-999----------------------|---9999-999-999-999-999-999-999----------------------|
-----------------------------------------------------|-----------------------------------------------------|-----------------------------------------------------|-----------------------------------------------------|---9999-999-999-999-999-999-999----------------------|---9999-999-999-999-999-999-999----------------------|
-----------------------------------------------------|--------------13-------------------------------------|-----------------------------------------14----------|-9--12--9--12----9--12--9--12-11--9--12--------------|-----------------------------------------------------|-----------------------------------------------------|x8
-----------------------------------------------------|-----------------------------------------------------|-----------------------------------------------------|-----------------------------------------------------|------------------------------------------9----------|------------------------------------------9----------|
And that's it, if anything pops out to be wrong you could mail me at velox93@hotmail.com!
Tap to rate this tab
 
# A B C D E F G H I J K L M N O P Q R S T U V W X Y Z