Live It Up tab with lyrics by Airbourne - Easy chords and tabs for guitar

Airbourne – Live It Up tab

Tuning: half step up
Chords: A,D,E,G

READ THIS: Every dash = 1/16 of the bar (1/4 of a beat).

Intro: Guitar 1: E & B strings. You don't have to play the B string if it doesn't sound good to you. 4-4-5-5-||7-7-7-7-7-7-7-7-|7-7-7-7-4-4-5-5-||5-5-5-5-||5-5-5-5-5-5-5-5-|5-5-5-5-5-5-5-5-||3X-------------------------------------------||-------------------------------------------||-------------------------------------------||-------------------------------------------||
7-7-7-7-7-7-7-7-|7-7-7-7-7-7-7-7------------| 5-5-5-5-5-5-5-5-|-------5-5-5-5-5-5-5-5-----|-------------------------------------------||-------------------------------------------||-------------------------------------------||-------------------------------------------||
10-10-10-10-10-10-10-10-|9-9-9-9-9-9-5-5----| 7--7--7--7--7--7--7--7--|7-7-7-7-7-7-5-5----|-------------------------------------------||-------------------------------------------||-------------------------------------------||-------------------------------------------||
7-7-7-7-7-7-5-5-|7-7-7-7-7-7-7-7------------|5-5-5-5-5-5-5-5-|5-5-5-5-5-5-5-5------------|-------------------------------------------||-------------------------------------------||-------------------------------------------||-------------------------------------------||
10-10-10-10-10-10-10-10-|9-9-9-9-9-9-9-9-|7--7--7--7--7--7--7--7--|7-7-7-7-7-7-7-7-|
13-13-13-13-13-13-13-13-|13-13-13-13-13-13-13-13\|9--9--9--9--9--9--9--9--|9--9--9--9--9--9--9--9-\|------------------------------------------------||------------------------------------------------||------------------------------------------------||------------------------------------------------||
Play for rest of intro; strum E chord for last 4 bars!----------------|----------------||----------------||3-3-3-3-3-3-5-3-|2-2-2-2-2-2-3-2-||0-0-0-0-0-0-0-0-||2x---------------------------------------------------||---------------------------------------------------||---------------------------------------------------||---------------------------------------------------||
Guitar 2 for rest of intro (e,b,g strings)----------------|----------------|----------------|-|8---------------|7-----3---------|5---------------|-|4x7---------------|7-----2---------|4---------------|-|---------------------------------------------------||---------------------------------------------------||---------------------------------------------------||
Riff 1 (4x)/ Chorus (8x): E,D,A----------------|--------3-------|--------2---2---|2-------0---2---|2-----------0---|0-----0--------3|
Verse (8x): D,A,E----------------|3---------------|2-------2-------|0-------2---2---|--------0---2---|------3-----0---|
Bridge: E,G,D,A. ----------------|3---------------|----------------|0---------------|----------------|0---------------|2---------------|0---------------|2---------------|2---------------|0---------------|3---------------|
----------------|----------------|3---------------|---------3-3----|2---------------|2---------2-5---|0---------------|2---------------|----------------|0---------------|----------------|----------------|
----------------|3---------------|----------------|0---------------|----------------|0---------------|2---------------|0---------------|2---------------|2---------------|0---------------|3---------------|
----------------|----------------|----------------|3---------------|----------------|----------------|2---------------|2-----2-----2---|--2-------------|0---------------|2-----2-----2---|--2-------------|----------------|0-----0-----0---|--0-------------|----------------|----------------|----------------|
ChorusVerseBridgeChorusInterlude----------------|----------------|3----2----------|3----2----------|2----2-2---2----|2----2-2---2----|0----0-2---2----|0----0-2---2----|-------0---0----|-------0---0----|----------------|----------------|
3----3----------|----------------|0----0-3---3----|----------------|0----0-2---2----|----------------|0----0-0---0---2|----------------|2----2---------2|----------------|3----3-------3-0|----------------|
Chorus Solo (8 bars. Rhythm plays chorus) Pause 4/4, 2/4 (1½ bars) End:D,A,E Song Order: Intro Riff 1 Verse Chorus Verse Chorus Interlude Chorus Solo Pause Interlude Chorus Chorus Interlude Pause Ending This is my first submission. Hope it sounds right. KEEP ON ROCKIN'!
Please rate this tab:
x1.0