Akela - Felkeszultem A Halalra Guitar 1 tab

                            Felkeszultem A Halalra


                                                                           Akela
Guitar 1


E||------------------------|-----------------------------|B||------------------------|-----------------------------|G||------------------------|-----------------------------|D||------------------------|-----------------------------|A||-----5--7~------8--7~---|-----5--7~---10--8h10h8-7~---|E||--0----------0----------|--0--------------------------|
------------------------|-----------------------------|------------------------|-----------------------------|------------------------|-----------------------------|------------------------|-----------------------------|-----5--7~------8--7~---|-----5--7~--10-10/8-8/7-7~---|--0----------0----------|--0--------------------------|
--------------------------|------------------------------|--------------------------|------------------------------|--------------------------|------------------------------|--------------------------|------------------------------|-----5-7-7~------8-7-7~---|-----5-7-7~---10--8h10h8-7~---|--0-----------0-----------|--0---------------------------|
--------------------------|------------------------------|-------------------|--------------------------|------------------------------|-------------------|--------------------------|------------------------------|-------------------|--------------------------|------------------------------|-------------------|-----5-7-7~------8-7-7~---|-----5-7-7~--10-10/8-8/7-7~---|--2----------------|--0-----------0-----------|--0---------------------------|--0----------------|
-----------------------|--------------------------|-----------------------|--------------------------|-----------------------|--------------------------|-------------3----4----|--------------------------|--2------2-2-1----2----|-----5-7-7~------8-7-7~---|--0------0-0-----------|--0-----------0-----------|
------------------------------|-------------------|-----------------------|------------------------------|-------------------|-----------------------|------------------------------|-------------------|-----------------------|------------------------------|-------------------|-------------3----4----|-----5-7-7~---10--8h10h8-7~---|--2----------------|--2------2-2-1----2----|--0---------------------------|--0----------------|--0------0-0-----------|
--------------------------|-------------------------------|--------------------------|-------------------------------|--------------------------|-------------------------------|--------------------------|-------------------------------|-----5-7-7~------8-7-7~---|-----5-7-7~--7-10--8h10h8-7~---|--0-----------0-----------|--0----------------------------|
--------------------------|-------------------------------|--------------------------|-------------------------------|--------------------------|-------------------------------|--------------------------|-------------------------------|-----5-7-7~------8-7-7~---|-----5-7-7~--7-7/5-5/3-3/2-2/0-|--0-----------0-----------|--0----------------------------|
-------------------------------|-------------------------------|-------------------------------|-------------------------------|-------------------------------|-------------------------------|------7------7------7----------|------7------7------7----------|----7------7------7------7-6---|----7------7------7------7-6---|--5------5------5------5-----8-|--5------5------5------5-----8-|
------------------------------|--------------------------|------------------------------|--------------------------|------------------------------|--------------------------|------------------------------|--------------------------|--4--------3----3--3--3-3-3-3-|-----5-7-7~------8-7-7~---|--2--------1----1--1--1-1-1-1-|--0-----------0-----------|
-------------------------------|-------------------------------|-------------------------------|-------------------------------|-------------------------------|-------------------------------|-------------------------------|------7------7------7----------|-----5-7-7~--7-7/5-5/3-3/2-2/0-|----7------7------7------7-6---|--0----------------------------|--5------5------5------5-----8-|
-------------------------------|------------------------------|-------------------------------|------------------------------|-------------------------------|------------------------------|------7------7------7----------|------------------------------|----7------7------7------7-6---|--4--------3----3--3--3-3-3-3-|--5------5------5------5-----8-|--2--------1----1--1--1-1-1-1-|
--------------------------|-------------------------------|--------------------------|-------------------------------|--------------------------|-------------------------------|--------------------------|-------------------------------|-----5-7-7~------8-7-7~---|-----5-7-7~--7-10--8h10h8-7~---|--0-----------0-----------|--0----------------------------|
--------------------------|------------------------------|------------------|--------------------------|------------------------------|------------------|--------------------------|------------------------------|------------------|--------------------------|------------------------------|------------------|-----5-7-7~------8-7-7~---|-----5-7-7~--7-10/8-8/12-7~---|------------------|--0-----------0-----------|--0---------------------------|------------------|
------------------|------------------|-----------------10-|------------------|------------------|--------------------|------------------|------------------|--------------------|------------------|------------------|--------------------|------------------|------------------|--------------------|------------------|------------------|--------------------|
--10/9-9/10-10/13-13/10-10/9-9/10-10/9-9/6-|--6/5-5/6-6/10-10/9-5-6-5-3-5~--10-|-------------------------------------------|-----------------------------------|-------------------------------------------|-----------------------------------|-------------------------------------------|-----------------------------------|-------------------------------------------|-----------------------------------|-------------------------------------------|-----------------------------------|
--10/9-9/10-10/13-13/10-10/9-9/10-10/9-9/6-|--6/5-5/6-6/10-10/9-5-6-5-3-0~---|-------------------------------------------|---------------------------------|-------------------------------------------|---------------------------------|-------------------------------------------|---------------------------------|-------------------------------------------|---------------------------------|-------------------------------------------|---------------------------------|
--12-12-12-12-12-12-12-12-12-12-12-12-12-12-12-12-12-12-12-12-12-12-12-12-12-12-|--------------------------------------------------------------------------------|--------------------------------------------------------------------------------|--------------------------------------------------------------------------------|--------------------------------------------------------------------------------|--------------------------------------------------------------------------------|
--12-12-12-12-12-12-12-12-12-12-12-12-12-12-12-12-12-12-12-12-12-12-12-12-12-12-|--------------------------------------------------------------------------------|--------------------------------------------------------------------------------|--------------------------------------------------------------------------------|--------------------------------------------------------------------------------|--------------------------------------------------------------------------------|
--15b---17-15-12-15--------12-|------------15--12/-----|------------------------------|--15/-------------------|------------------------------|------------------------|------------------------------|------------------------|------------------------------|------------------------|------------------------------|------------------------|
--10/9-9/10-10/13-13/10-10/9-9/10-10/9-9/6-|-------------------------------------------|-------------------------------------------|-------------------------------------------|-------------------------------------------|-------------------------------------------|
--6/5-5/6-6/10-10/9-5-6-5-3-5~--10-10-|--------------------------------------|--------------------------------------|--------------------------------------|--------------------------------------|--------------------------------------|
--10/9-9/10-10/13-13/10-10/9-9/10-10/9-9/6-|--6/5-5/6-6/10-10/9-5-6-5-3-0~---|-------------------------------------------|---------------------------------|-------------------------------------------|---------------------------------|-------------------------------------------|---------------------------------|-------------------------------------------|---------------------------------|-------------------------------------------|---------------------------------|
--12-13-12-13-12-13-12-13-12-13-12-13-12-13-12-13-12-13-12-13-12-13-12-13-12-13-|--------------------------------------------------------------------------------|--------------------------------------------------------------------------------|--------------------------------------------------------------------------------|--------------------------------------------------------------------------------|--------------------------------------------------------------------------------|
--12-13-12-13-12-13-12-13-12-13-12-13-12-13-12-13-12-13-12-13-12-13-12-13-12-13-|--------------------------------------------------------------------------------|--------------------------------------------------------------------------------|--------------------------------------------------------------------------------|--------------------------------------------------------------------------------|--------------------------------------------------------------------------------|
--15b---17-15-12-15--------12-|------------12~-------|------------------------|------------------------------|--15b-----------------|------------------------|------------------------------|----------------------|------------------------|------------------------------|----------------------|------------------------|------------------------------|----------------------|-----5--7~------8--7~---|------------------------------|----------------------|--0----------0----------|
-----------------------------|------------------------|-----------------------------|------------------------|-----------------------------|------------------------|-----------------------------|------------------------|-----5--7~---10--8h10h8-7~---|-----5--7~------8--7~---|--0--------------------------|--0----------0----------|
-----------------------------|--------------------------|-----------------------------|--------------------------|-----------------------------|--------------------------|-----------------------------|--------------------------|-----5--7~---10/8-8/7-7~-19/-|-----5-7-7~------8-7-7~---|--0--------------------------|--0-----------0-----------|
------------------------------|--------------------------|------------------------------|--------------------------|------------------------------|--------------------------|------------------------------|--------------------------|-----5-7-7~---10--8h10h8-7~---|-----5-7-7~------8-7-7~---|--0---------------------------|--0-----------0-----------|
------------------------------|---------------------|------------------------------|---------------------|------------------------------|---------------------|------------------------------|---------------------|-----5-7-7~--10-10/8-8/7-7~---|--2--------------2-2-|--0---------------------------|--0--------------0-0-|
--------------------------------|--------------------------|--------------------------------|--------------------------|--------------------------------|--------------------------|--------------------------3--4--|--------------------------|--2-2-2-2-2-2-2-2-2-2-2-2-1--2--|-----5-7-7~------8-7-7~---|--0-0-0-0-0-0-0-0-0-0-0-0-------|--0-----------0-----------|
------------------------------|---------------------|------------------------------|---------------------|------------------------------|---------------------|------------------------------|---------------------|-----5-7-7~--10-10/8-8/7-7~---|--2--------------2-2-|--0---------------------------|--0--------------0-0-|
--------------------------------|--------------------------|--------------------------------|--------------------------|--------------------------------|--------------------------|--------------------------3--4--|--------------------------|--2-2-2-2-2-2-2-2-2-2-2-2-1--2--|-----5-7-7~------8-7-7~---|--0-0-0-0-0-0-0-0-0-0-0-0-------|--0-----------0-----------|
-------------------------------|--------------------------|-------------------------------|--------------------------|-------------------------------|--------------------------|-------------------------------|--------------------------|-----5-7-7~--7-10--8h10h8-7~---|-----5-7-7~------8-7-7~---|--0----------------------------|--0-----------0-----------|
-------------------------------|-------------------------------|-------------------------------|-------------------------------|-------------------------------|-------------------------------|-------------------------------|------7------7------7----------|-----5-7-7~--7-7/5-5/3-3/2-2/0-|----7------7------7------7-6---|--0----------------------------|--5------5------5------5-----8-|
-------------------------------|------------------------------|-------------------------------|------------------------------|-------------------------------|------------------------------|------7------7------7----------|------------------------------|----7------7------7------7-6---|--4--------3----3--3--3-3-3-3-|--5------5------5------5-----8-|--2--------1----1--1--1-1-1-1-|
--------------------------|-------------------------------|--------------------------|-------------------------------|--------------------------|-------------------------------|--------------------------|-------------------------------|-----5-7-7~------8-7-7~---|-----5-7-7~--7-7/5-5/3-3/2-2/0-|--0-----------0-----------|--0----------------------------|
-------------------------------|-------------------------------|-------------------------------|-------------------------------|-------------------------------|-------------------------------|------7------7------7----------|------7------7------7----------|----7------7------7------7-6---|----7------7------7------7-6---|--5------5------5------5-----8-|--5------5------5------5-----8-|
------------------------------|-------------------||------------------------------|-------------------||------------------------------|-------------------||------------------------------|-------------------||--4--------3----3--3--3-3-3-3-|--2----------------||--2--------1----1--1--1-1-1-1-|--0----------------||
Tap to rate this tab
 
# A B C D E F G H I J K L M N O P Q R S T U V W X Y Z