Akela - Felkeszultem A Halalra Guitar 2 tab

                            Felkeszultem A Halalra


                                     Akela
Guitar 2

Tempo:90


E||------------------|------------------|-------------------|B||------------------|------------------|-------------------|G||------------------|------------------|-------------------|D||------------------|------------------|-------------------|A||------------------|------------------|--2----------------|E||------------------|------------------|--0----------------|
--------------------|------------------------------|--------------------|------------------------------|--------------------|------------------------------|--------------------|------------------------------|--------------------|--2--2-2-2--2-2-2--2-2-2--2-2-|----------------12/-|--0--0-0-0--0-0-0--0-0-0--0-0-|
------------------------------|------------------------------|------------------------------|------------------------------|------------------------------|------------------------------|------------------------------|------------------------------|--2--2-2-2--2-2-2--2-2-2--2-2-|--2--2-2-2--2-2-2--2-2-2--2-2-|--0--0-0-0--0-0-0--0-0-0--0-0-|--0--0-0-0--0-0-0--0-0-0--0-0-|
------------------------------|------------------|------------------|------------------------------|------------------|------------------|------------------------------|------------------|------------------|------------------------------|------------------|------------------|--2--2-2-2--2-2-2--2-2-2--2-2-|------------------|------------------|--0--0-0-0--0-0-0--0-0-0--0-0-|------------------|------------------|
------------------------------|------------------------------|------------------------------|------------------------------|------------------------------|------------------------------|------------------------------|------------------------------|--2--2-2-2--2-2-2--2-2-2--2-2-|--2--2-2-2--2-2-2--2-2-2--2-2-|--0--0-0-0--0-0-0--0-0-0--0-0-|--0--0-0-0--0-0-0--0-0-0--0-0-|
------------------|------------------|------------------------------|------------------|------------------|------------------------------|------------------|------------------|------------------------------|------------------|------------------|------------------------------|------------------|------------------|--2--2-2-2--2-2-2--2-2-2--2-2-|------------------|------------------|--0--0-0-0--0-0-0--0-0-0--0-0-|
------------------------------|------------------------------|------------------------------|------------------------------|------------------------------|------------------------------|------------------------------|------------------------------|--2--2-2-2--2-2-2--2-2-2--2-2-|--2--2-2-2--2-2-2--2-2-2--2-2-|--0--0-0-0--0-0-0--0-0-0--0-0-|--0--0-0-0--0-0-0--0-0-0--0-0-|
------------------------|-------------------------|---------------------------|------------------------|-------------------------|---------------------------|------------------------|-------------------------|---------------------------|------------------------|-------------------------|---------------------------|--2--2-2-2--2-2---------|--7-7-7-7-7----7----7----|--7-7-7-7-7----7----7--7-7-|--0--0-0-0--0-0---------|--5-5-5-5-5----5----5----|--5-5-5-5-5----5----5--5-5-|
----------------------|------------------------------|------------------------|----------------------|------------------------------|------------------------|----------------------|------------------------------|------------------------|----------------------|------------------------------|------------------------|----------------------|--2--2-2-2--2-2-2--2-2-2--2-2-|--2--2-2-2--2-2---------|----------------------|--0--0-0-0--0-0-0--0-0-0--0-0-|--0--0-0-0--0-0---------|
-------------------------|---------------------------|----------------------|-------------------------|---------------------------|----------------------|-------------------------|---------------------------|----------------------|-------------------------|---------------------------|----------------------|--7-7-7-7-7----7----7----|--7-7-7-7-7----7----7--7-7-|----------------------|--5-5-5-5-5----5----5----|--5-5-5-5-5----5----5--5-5-|----------------------|
------------------------------|------------------------------|------------------------------|------------------------------|------------------------------|------------------------------|------------------------------|------------------------------|--2--2-2-2--2-2-2--2-2-2--2-2-|--2--2-2-2--2-2-2--2-2-2--2-2-|--0--0-0-0--0-0-0--0-0-0--0-0-|--0--0-0-0--0-0-0--0-0-0--0-0-|
------------------------------|------------------------------|------------------------------|------------------------------|------------------------------|------------------------------|------------------------------|------------------------------|--2--2-2-2--2-2-2--2-2-2--2-2-|--2--2-2-2--2-2-2--2-2-2--2-2-|--0--0-0-0--0-0-0--0-0-0--0-0-|--0--0-0-0--0-0-0--0-0-0--0-0-|
------------------------------|----------------------------------|------------------------------|----------------------------------|------------------------------|----------------------------------|------------------------------|----------------------------------|--7--7-7-7--7-7-7--7-7-7/8-5--|--7--7-7-7--7-7-7/8-8/10-10/8-8/7-|--5--5-5-5--5-5-5--5-5-5/6-3--|--5--5-5-5--5-5-5/6-6/8--8/-6-6/5-|
------------------------------|----------------------------------|------------------------------|----------------------------------|------------------------------|----------------------------------|------------------------------|----------------------------------|--7--7-7-7--7-7-7--7-7-7/8-5--|--7--7-7-7--7-7-7/8-8/10-10/8-8/7-|--5--5-5-5--5-5-5--5-5-5/6-3--|--5--5-5-5--5-5-5/6-6/8--8/-6-6/5-|
------------------------------|----------------------------------|------------------------------|----------------------------------|------------------------------|----------------------------------|------------------------------|----------------------------------|--7--7-7-7--7-7-7--7-7-7/8-5--|--7--7-7-7--7-7-7/8-8/10-10/8-8/7-|--5--5-5-5--5-5-5--5-5-5/6-3--|--5--5-5-5--5-5-5/6-6/8--8/-6-6/5-|
------------------------------|----------------------------------|------------------------------|----------------------------------|------------------------------|----------------------------------|------------------------------|----------------------------------|--7--7-7-7--7-7-7--7-7-7/8-5--|--7--7-7-7--7-7-7/8-8/10-10/8-8/7-|--5--5-5-5--5-5-5--5-5-5/6-3--|--5--5-5-5--5-5-5/6-6/8--8/-6-6/5-|
-----------------------------|-----------------------------|-----------------------------|-----------------------------|-----------------------------|-----------------------------|-----------------------3--3--|-----------------------3--3--|--2--2-2-2--2-2-2--2-2-1--1--|--2--2-2-2--2-2-2--2-2-1--1--|--0--0-0-0--0-0-0--0-0-------|--0--0-0-0--0-0-0--0-0-------|
-----------------------------|-----------------------------|-----------------------------|-----------------------------|-----------------------------|-----------------------------|-----------------------3--3--|-----------------------3--3--|--2--2-2-2--2-2-2--2-2-1--1--|--2--2-2-2--2-2-2--2-2-1--1--|--0--0-0-0--0-0-0--0-0-------|--0--0-0-0--0-0-0--0-0-------|
------------------------------|----------------------------------|------------------------------|----------------------------------|------------------------------|----------------------------------|------------------------------|----------------------------------|--7--7-7-7--7-7-7--7-7-7/8-5--|--7--7-7-7--7-7-7/8-8/10-10/8-8/7-|--5--5-5-5--5-5-5--5-5-5/6-3--|--5--5-5-5--5-5-5/6-6/8--8/-6-6/5-|
------------------------------|----------------------------------|------------------------------|----------------------------------|------------------------------|----------------------------------|------------------------------|----------------------------------|--7--7-7-7--7-7-7--7-7-7/8-5--|--7--7-7-7--7-7-7/8-8/10-10/8-8/7-|--5--5-5-5--5-5-5--5-5-5/6-3--|--5--5-5-5--5-5-5/6-6/8--8/-6-6/5-|
-----------------------------|-----------------------------|-----------------------------|-----------------------------|-----------------------------|-----------------------------|-----------------------3--3--|-----------------------3--3--|--2--2-2-2--2-2-2--2-2-1--1--|--2--2-2-2--2-2-2--2-2-1--1--|--0--0-0-0--0-0-0--0-0-------|--0--0-0-0--0-0-0--0-0-------|
-----------------------------|-----------------------------|-------------------|-----------------------------|-----------------------------|-------------------|-----------------------------|-----------------------------|-------------------|-----------------------3--3--|-----------------------3--3--|-------------------|--2--2-2-2--2-2-2--2-2-1--1--|--2--2-2-2--2-2-2--2-2-1--1--|--2----------------|--0--0-0-0--0-0-0--0-0-------|--0--0-0-0--0-0-0--0-0-------|--0----------------|
------------------|-----------------------|----------------------------|------------------|-----------------------|----------------------------|------------------|-----------------------|----------------------------|------------------|----7--9~-----10--9~---|----7--9~---12/10-10/9-9~---|------------------|-----------------------|----------------------------|------------------|-----------------------|----------------------------|
------------------------------|------------------------------|------------------------------|------------------------------|------------------------------|------------------------------|------------------------------|------------------------------|--2--2-2-2--2-2-2--2-2-2--2-2-|--2--2-2-2--2-2-2--2-2-2--2-2-|--0--0-0-0--0-0-0--0-0-0--0-0-|--0--0-0-0--0-0-0--0-0-0--0-0-|
------------------------------|------------------------------|------------------------------|------------------------------|------------------------------|------------------------------|------------------------------|------------------------------|--2--2-2-2--2-2-2--2-2-2--2-2-|--2--2-2-2--2-2-2--2-2-2--2-2-|--0--0-0-0--0-0-0--0-0-0--0-0-|--0--0-0-0--0-0-0--0-0-0--0-0-|
------------------|------------------|------------------------------|------------------|------------------|------------------------------|------------------|------------------|------------------------------|------------------|------------------|------------------------------|------------------|------------------|--2--2-2-2--2-2-2--2-2-2--2-2-|------------------|------------------|--0--0-0-0--0-0-0--0-0-0--0-0-|
------------------------------|------------------|------------------|------------------------------|------------------|------------------|------------------------------|------------------|------------------|------------------------------|------------------|------------------|--2--2-2-2--2-2-2--2-2-2--2-2-|------------------|------------------|--0--0-0-0--0-0-0--0-0-0--0-0-|------------------|------------------|
------------------------------|------------------------------|------------------------------|------------------------------|------------------------------|------------------------------|------------------------------|------------------------------|--2--2-2-2--2-2-2--2-2-2--2-2-|--2--2-2-2--2-2-2--2-2-2--2-2-|--0--0-0-0--0-0-0--0-0-0--0-0-|--0--0-0-0--0-0-0--0-0-0--0-0-|
------------------------------|------------------------|------------------------------|------------------------|------------------------------|------------------------|------------------------------|------------------------|--2--2-2-2--2-2-2--2-2-2--2-2-|--2--2-2-2--2-2---------|--0--0-0-0--0-0-0--0-0-0--0-0-|--0--0-0-0--0-0---------|
-------------------------|---------------------------|----------------------|-------------------------|---------------------------|----------------------|-------------------------|---------------------------|----------------------|-------------------------|---------------------------|----------------------|--7-7-7-7-7----7----7----|--7-7-7-7-7----7----7--7-7-|----------------------|--5-5-5-5-5----5----5----|--5-5-5-5-5----5----5--5-5-|----------------------|
------------------------------|------------------------|------------------------------|------------------------|------------------------------|------------------------|------------------------------|------------------------|--2--2-2-2--2-2-2--2-2-2--2-2-|--2--2-2-2--2-2---------|--0--0-0-0--0-0-0--0-0-0--0-0-|--0--0-0-0--0-0---------|
-------------------------|---------------------------|----------------------|-------------------------|---------------------------|----------------------|-------------------------|---------------------------|----------------------|-------------------------|---------------------------|----------------------|--7-7-7-7-7----7----7----|--7-7-7-7-7----7----7--7-7-|----------------------|--5-5-5-5-5----5----5----|--5-5-5-5-5----5----5--5-5-|----------------------|
------------------||------------------||------------------||------------------||------------------||------------------||
Peter "SPy" Sas
Tap to rate this tab
 
# A B C D E F G H I J K L M N O P Q R S T U V W X Y Z