Akercocke - Becoming The Adversary tab

tabed by robbie filth, taken by Paul Filth to desplay on ultimate guitar.

Band: Akercocke
Album: Chronozon
Song: Becoming the Adversary
Record Label: Earache
Tuning: C F A# D# G C

listen for the rythms

--------------------------------------|--------------------------------------|--------------------------------------|--------------------------------------|--------------------------------------|-22222222222554422222255442222225544--| pm..................................
--------------------------------------|--------------------------------------|--------------------------------------|--------------------------------------|--------------------------------------|-22222222222554422222255442225544111--|X6 pm.................................
--------------------------------------|--------------------------------------|--------------------------------------|--------------------------------------|--------------------------------------|-11111111111443311111144331111114433--| pm.................................
--------------------------------------|--------------------------------------|--------------------------------------|--------------------------------------|--------------------------------------|-11111111111443311111144331114433000--|X2 pm.................................
--------------------------------------|--------------------------------------|--------------------------------------|--------------------------------------|--------------------------------------|-22222222222554422222255442222225544--| pm..................................
--------------------------------------|--------------------------------------|--------------------------------------|--------------------------------------|--------------------------------------|-22222222222554422222255442225544111--|X6 pm..................................
-----------------------------|-----------------------------|-----------------------------|-6666--------7777------------|-----------------------------|-----22222222----11111111----|
pm......................--------------------------------|--------------------------------|--------------------------------|-6666--------7777---------------|-----------------3-4-3-4-3-4-3--|-----22222222----1-2-1-2-1-2-1--| pm.............................
------------------------------------------|------------------------------------------|------------------------------------------|--------------------7777777777777777777---|-77777777777777777775555555555555555555---|-5555555555555555555----------------------|X3
-------------|-------------|-15---15-----|-ph---ph-----|------bend---|-------------|
--------------------------------------|--------------------------------------|--------------------------------------|--------------------------------------|--------------------------------------|-11111111111443311111144331111114433--| pm.................................
-------------------------------|-------------------------------|-------------------------------|-------------------------------|-----------------------7-7-6---|-111111111114433111111-5-5-4---| pm...................
--------------------------------------|--------------------------------------|--------------------------------------|--------------------------------------|--------------------------------------|-11111111111443311111144331111114433--| pm.................................
-----------------------------------|-----------------------------------|-----------------------------------|-----------------------------------|-----------------------7-7-6-4-6---|-111111111114433111111-5-5-4-2-4---| pm................... ....
--------------------------------------|--------------------------------------|--------------------------------------|--------------------------------------|--------------------------------------|-11111111111443311111144331111114433--| pm.................................
-------------------------------|-------------------------------|-------------------------------|-------------------------------|-----------------------7-7-6---|-111111111114433111111-5-5-4---| pm...................
--------------------------------------|--------------------------------------|--------------------------------------|--------------------------------------|--------------------------------------|-11111111111443311111144331111114433--| pm.................................
--------------------------------|--------------------------------|--------------------------------|--------------------------------|--------------------7-7-6-4-6---|-111111111114433111-5-5-4-2-4---| pm................ ....
------------------------------------------|------------------------------------------|------------------------------------------|--------------------7777777777777777777---|-77777777777777777775555555555555555555---|-5555555555555555555----------------------|X2
-----------------------------------|-----------------------------------|-----------------------------------|-----------------------------------|----77777766666666666666666666-----|-000-------------------------------|X8 pm............................
------------------------------------------------------------------|------------------------------------------------------------------|------------------------------------------------------------------|-1515151515-----1515151515-----1616161616-----1616161616----------|-1313131313-----1313131313-----1414141414-----1414141414----------|-----------00000----------00000----------00000----------00000-----|X4
----------------------------------------|----------------------------------------|----------------------------------------|----------------------------------------|-9-9-3-3-9-9-3-3-9-9-3-3-333222333222---|-7-7-1-1-7-7-1-1-7-7-1-1-111000111000---|X4 pm..........
--------------------------|--------------------------|--------------------------|-8-9-8-6-8-9---11-9-8-9---|--------------------------|--------------------------|X2 pm..................... trem...................
----------------------------------------|----------------------------------------|----------------------------------------|----------------------------------------|-9-9-3-3-9-9-3-3-9-9-3-3-333222333222---|-7-7-1-1-7-7-1-1-7-7-1-1-111000111000---|X2 pm..........
-----------------|-----------------|---------------0-|---8-5---8-2-5---|-6-----6---------|-----------------|X4
--------------|--------------|--------------|---8-5---8-2--|-6-----6------|--------------|X4 pm........... trem.........
-----------------------------------------|-----------------------------------------|--------------0---0----------------0-----|----------------5----------------4---4---|------5---4--------------5---4-----------|-33333-333-333------33333-333-333--------|X2 pm... ... ... ..... ... ...
-------------|-------------|-------------|-------------|-9865-7643---|-----0----0--|X5 pm........
-----------------------------------------|-----------------------------------------|--------------0---0----------------0-----|----------------5----------------4---4---|------5---4--------------5---4-----------|-33333-333-333------33333-333-333--------|X2 pm... ... ... ..... ... ...
----------------------|----------------------|----------------------|----------------------|-9865-7643109769865---|-----0-------------0--| pm..................
------------------|------------------|------------------|------------------|-7643109769865----|---------------0--|X4 pm..............
--------------------------------------------|--------------------------------------------|--------------------------------------------|--------------------------------------------|---------3333----2222-----------------------|-11111111----1111----11111111333111000111---|X4 pm...... .... ....................
--------------------------------------------|--------------------------------------------|--------------------------------------------|--------------------------------------------|--------------------------------------------|-000000111111000000222222000000111333111----|X2 pm......................................
--------------------------------------------|--------------------------------------------|--------------------------------------------|--------------------------------------------|---------3333----2222-----------------------|-11111111----1111----11111111333111000111---|X2 pm.......................................
-------------------------------------------|-------------------------------------------|-------6-------6-----------6-------6-------|-----5-------5-----------5-------5---------|---4-------4-----5-5---4-------4-----5-5---|-3-------3-------3-3-3-------3-------3-3---| pm. ...let notes ring xcept pm's
--------------------------------------------|--------------------------------------------|--------------------------------------------|--------------------------------------------|--------------------------------------------|-000000111111000000222222000000111333111----| pm......................................
---------------------------------------|------------------------bend-----------|-------6-------6-4------6-------6-4-0--|-----5-------5--------5-------5--------|---4-------4--------4-------4----------|-3-------3--------3-------3------------|X2 let notes ring
------------------------|------------------------|------------------------|-5-6-5---5-6-5---5-6-5--|------------------------|-------3-------3--------|about 16 times pm....................
--------------------------------------------------------|--------------------------------------------------------|---7---7-------7---8-7-7-----7---7-------7--------------|-9---9---9-9-9---9-----nh--9---9---9-9-9---9---4--------|--------------------------------------------------------|---------------------------------------------2----------|let notes ring bendnh = natural harmonic
--------------------------------------------------------|--------------------------------------------------------|---7---7-------7---8-7-7-----7---7-------7-----5--------|-9---9---9-9-9---9-----nh--9---9---9-9-9---9---ph-------|--------------------------------------------------------|---------------------------------------------2----------|ph = pinch harmonic
------------------------|------------------------|------------------------|-5-6-5---5-6-5---5-6-5--|------------------------|-------3-------3--------|X8 pm....................
--------------------------------------------------------|--------------------------------------------------------|---7---7-------7---8-7-7-----7---7-------7--------------|-9---9---9-9-9---9-----nh--9---9---9-9-9---9---4--------|--------------------------------------------------------|---------------------------------------------2----------|let notes ring bendnh = natural harmonic
--------------------------------------------------------|--------------------------------------------------------|---7---7-------7---8-7-7-----7---7-------7-----5--------|-9---9---9-9-9---9-----nh--9---9---9-9-9---9---ph-------|--------------------------------------------------------|---------------------------------------------2----------|ph = pinch harmonic
--------------------------------------------------------|--------------------------------------------------------|---7---7-------7---8-7-7-----7---7-------7--------------|-9---9---9-9-9---9-----nh--9---9---9-9-9---9---4--------|--------------------------------------------------------|---------------------------------------------2----------|let notes ring bendnh = natural harmonic
---------------------------------------------------|---------------------------------------------------|---7---7-------7---8-7-7-----7---7-------7---------|-9---9---9-9-9---9-----nh--9---9---9-9-9---9-------|---------------------------------------------------|---------------------------------------------2-----| hold note with a big bend
thts all any corrections or comments plz mail them too: septic_flesh241@hotmail.com
Tap to rate this tab
 
# A B C D E F G H I J K L M N O P Q R S T U V W X Y Z