Alejandro Silva - Er Rock tab

Er rock 


Alejandro Silva

E||-------------------------|------------------------|-------------------------|B||-------------------------|------------------------|-------------------------|G||-------------------------|------------------------|-------------------------|D||-------------------------|------------------------|-------------------------|A||--2----------------2--3b-|----3--2-----2r---------|--2----------------2--3b-|E||--0----0--0--0--3--------|----------3-------3--1--|--0----0--0--0--3--------|
------------------------|-------------------------|------------------------|------------------------|-------------------------|------------------------|------------------------|-------------------------|------------------------|------------------------|-------------------------|------------------------|----3--2-----2r---------|--2----------------2--3b-|----3--2-----2r---------|----------3-------3--1--|--0----0--0--0--3--------|----------3-------3--1--|
-------------------------|------------------------|-------------------------|-------------------------|------------------------|-------------------------|-------------------------|------------------------|-------------------------|-------------------------|------------------------|-------------------------|--2----------------2--3b-|----3--2-----2r---------|--2----------------2--3b-|--0----0--0--0--3--------|----------3-------3--1--|--0----0--0--0--3--------|
------------------------|--------------------------|------------------------|------------------------|--------------------------|------------------------|------------------------|--------------------------|------------------------|------------------------|-----------------------5--|----7--5--4--2--1-------|----3--2-----2r---------|-----2--3-----3--5--------|-------------3--2----3--|----------3-------3--1--|--0--------0--------0-----|---------------------1--|
-----------0--------|----------3----3----|-----------0--------|----------3----3----|--------------------|----------5----5----|--2-----------------|----------5----5----|--2-----------------|--------------------|--0-----------------|--------------------|
--15-12----------12-15-12-15-10----------10-15-10-11-8----------8-11-8-|--------12----12----------------12----12---------------10----10--------|-----------12----------------------12---------------------11-----------|-----------------------------------------------------------------------|-----------------------------------------------------------------------|-----------------------------------------------------------------------|
--12-7-------7-12-7-------7-12-7-10-7-|-------8---8--------8---8-------------|---------9------------9---------------|--------------------------------------|--------------------------------------|--------------------------------------|
--15-12----------12-15-12----------12-15-12-17--|--------12----12----------12----12--------------|-----------12----------------12-----------------|------------------------------------------------|------------------------------------------------|------------------------------------------------|
--20-15----------15-20-15-19-14----------14-19-14-|--------17----17----------------16----16----------|-----------17----------------------16-------------|--------------------------------------------------|--------------------------------------------------|--------------------------------------------------|
--17-14----------14-17-14-15-12----------12-15-12-|--------15----15----------------13----13----------|-----------14----------------------12-------------|--------------------------------------------------|--------------------------------------------------|--------------------------------------------------|
--19-15-------------------------------------------|--------17----------------------------------------|-----------16-------------------------16-21----16-|--------------17----------16-17----17-------17----|-----------------19-14-19-------19----------------|--------------------------------------------------|
-----15-19-24-19-15-------------------|--17----------------17----------------|-----------------------16-------------|--------------------------17----16----|--------------------------------------|--------------------------------------|
--------------------12-15-14-12-------------------|-----------------13-------------13-------------12-|--------------12-------------------12----12-14----|-----------14-------------------------14----------|-----10-15----------------------------------------|--12----------------------------------------------|
-------------------------------------------------|------------------------|--13-12----------------------13-12-13------------|------------------------|--------14-11----14-12-14-11----------9----------|------------------------|--------------12---------------------------------|------------------------|----------------------------------------14-12-10-|--14------10--10--------|-------------------------------------------------|------------------------|
--------------------------|------------------------|--------------------------|------------------------|--------------------------|--9--------12-----11-9--|--------------------------|------------------------|----9--10--12--10--9------|------------------------|--------------------------|------------------------|
-------------------------------|--------------------|----------------------|-----------7-8-7---10------8-7-|--4--------7--------|--12--------16--------|--11-7---7-------7-------------|--------------------|----------------------|-------7-----------------------|--------------------|----------------------|-------------------------------|--------------------|----------------------|-------------------------------|--------------------|----------------------|
------5-6-5---------5-6-5---------|------------------|--5-8-------8-0-5-8-------8-5-10b-|------------------|----------------------------------|------------------|----------------------------------|------------------|----------------------------------|------------------|----------------------------------|------------------|
--------------------------|----13-13-13-------------------|------11--10b---10----11--|--------------11-10------------|--------------------------|--------------------12--9------|--------------------------|-------------------------------|--------------------------|-------------------------------|--------------------------|-------------------------------|
-----------------------------------17-18-20-18b-|-----17-22-17-22-17----17-17-18-20--------------|--16----------------16--------------------------|------------------------------------------------|------------------------------------------------|------------------------------------------------|
----18---------18-22-18-22-18-------|------------17----------------17----|---------------------------------19-|------------------------------------|------------------------------------|------------------------------------|
--22b---22b------------17-18-20-18-20-18-17-------|--------------17-18-20----------------------20-18-|--------------------------------------------------|--------------------------------------------------|--------------------------------------------------|--------------------------------------------------|
-------------------------------------------------------|--17---------------------------------------------------|-----19-17-15----------17-15-14------------------------|--------------19-17-15----------17-15-14---------------|-----------------------------------------17-15-13~-----|-------------------------------------------------------|
--12-7-------7-12-7-------7-12-7-----|-------8---8--------8---8--------8---|---------9------------9------------9-|-------------------------------------|-------------------------------------|-------------------------------------|
--6-5-3----------6-5-3----------6-5-3-------|--------5-3------------5-3------------5-3---|------------4-3------------4-3------------4-|--------------------------------------------|--------------------------------------------|--------------------------------------------|
--12-7-------7-12-7-15-12----------12-15-12-|-------8---8--------------12----12----------|---------9-------------------12-------------|--------------------------------------------|--------------------------------------------|--------------------------------------------|
--18-17-15--------------18-17-15--------------19-17-15----------|-----------17-15-----------------17-15-----------------17-15----|-----------------16-15-----------------16-15-----------------17-|----------------------------------------------------------------|----------------------------------------------------------------|----------------------------------------------------------------|
------------------15----17----18----|--15b---15b----17----17----17----17-|------------------------------------|------------------------------------|------------------------------------|------------------------------------|
--20-------------------------------24-------|--------20-17-22-20-17----17-20-22----22-20-|-----------------------19-------------------|--------------------------------------------|--------------------------------------------|--------------------------------------------|
--------------------------------------------------|--------------------------------------------------|-----21-------------------------------------------|--19----19-17----19-------------------------------|--------------19----19-17----19----------12-------|--------------------------17----17-15-12----12-10-|
---------------------------------|--12------12----------------------|---------------------------------|------------------13--12--10------|------------------------------9--|------11------12--------------12--|--12-----------------------------|----------------------------------|-----10-12-10----10--------------|----------------------------------|--------------12----10-----------|----------------------------------|
---------------------------|------------------------|---------------------------|------------------------|--9----------12------12-14-|--15----------15--19----|---------10----------------|------------------------|---------------------------|------------------------|---------------------------|------------------------|
----------19----20----22----|--------------------------|------------------|----------------------------|--22b-------22b-22b-------|------------------|----------------------------|--------------------------|------------------|----------------------------|----------------------21--|------------------|----------------------------|--------------------------|------------------|----------------------------|--------------------------|------------------|
-------------------------|---------------------------------|-------------------------|---------------------------------|-------------------------|---------------------------------|-------------------------|-------------7-------------------|--2----------------2--3b-|----3--2-------8-7-5-8-7-5-------|--0----0--0--0--3--------|----------3----------------8-7-5-|
-------------------------|------------------------|---------------------------|-------------------------|------------------------|---------------------------|-------------------------|------------------------|---------------------------|-------------------------|------------------------|-----------------------6-4-|--7----------------2--3b-|----3--2-----2r---------|-----2--3-----3--5---------|-------0--0--0--3--------|----------3-------3--1--|--0--------0--------0------|
-----------------------------|-----------0--------|--------------------|-----------------------------|-----------0--------|--------------------|-----------------------------|--------------------|--------------------|--6-7-6-4-9-7-6-----------7--|--6-----------------|----------5----7----|----------------9-7--6----8--|--7-----------------|----------3----5----|------------------8--7-------|--0-----------------|--------------------|
--15-12----------12-15-12-15-10----------10-15-10-14-11----------11-14-11-|--------12----12----------------12----12----------------13----13----------|-----------12----------------------12----------------------14-------------|--------------------------------------------------------------------------|--------------------------------------------------------------------------|--------------------------------------------------------------------------|
--15-12-------------------------------------------|--------12----12-13-17-12-------------------------|-----------12-------------12----12-14-16-12-17-14-|-----------------------------14-------------------|--------------------------------------------------|--------------------------------------------------|
-----------------------------------15-19----|--------------------------17-15-17----------|--16-12-------------12-16-------------------|--------14----14-16-------------------------|-----------14-------------------------------|--------------------------------------------|
--20-15----------15-20-15-19-14----------14-19-14-|--------17----17----------------16----16----------|-----------17----------------------16-------------|--------------------------------------------------|--------------------------------------------------|--------------------------------------------------|
--17-14----------14-17-14-15-12----------12-15-12-|--------15----15----------------13----13----------|-----------14----------------------12-------------|--------------------------------------------------|--------------------------------------------------|--------------------------------------------------|
--14-17-15-17----17-15-17-14-17-15-17-14-19-17-19-|--------------15----------------------------------|--------------------------------------------------|--------------------------------------------------|--------------------------------------------------|--------------------------------------------------|
-----20-19-20-17-20-19-20----20-19-20----19-17-15-|--19----------------------19----------17----------|--------------------------------------------------|--------------------------------------------------|--------------------------------------------------|--------------------------------------------------|
--17-19-15-19-14-19----19-------------------------|--------------------17----17-19-15-19----19----19-|--------------------------------------17----16----|--------------------------------------------------|--------------------------------------------------|--------------------------------------------------|
--------------------------------------------|--------------------|--------------------------------------------|--------------------|-----12-16----12----------------12----14----|--14b---------------|--14-------14----14-------14----------------|--------------------|--------------------14-12-------------------|--------------------|--------------------------------------------|--------------------|
----------------------------|--------------------|--------------------|----------------------------|--12b---------------|----------12r-------|----------------------------|--------------------|--------------------|----------14----14----14----|--------------------|--------------------|----------------------------|--------------------|--------------------|----------------------------|--------------------|--------------------|
------------------------|------------------------|------------------------|--15b-----------15--17b-|----------19b-----17-15-|--17--------------20-19-|------------------------|------------------------|------------------------|------------------------|------------------------|------------------------|------------------------|------------------------|------------------------|------------------------|------------------------|------------------------|
-----------19-17-19-17-------17b---17b---|--17-19-20-------------20-19-------------|-----------------------------------------|-----------------------------------------|-----------------------------------------|-----------------------------------------|
----15-14-15-17-15-14----14----------------------------|----------------------17----15-17-15-17-15-13-15-13-12-|-------------------------------------------------------|-------------------------------------------------------|-------------------------------------------------------|-------------------------------------------------------|
------------------------------------------------------------|--13-12----12-----------------------------------------------|--------14----12-14-12-11-12-11----11-----------------------|--------------------------------14----12-14-10-12-9-10----9-|-------------------------------------------------------12---|------------------------------------------------------------|
------------------------------------------|------------------------------------------|------------------------------------------|-----------------------------------9-12-9-|--10-12-9-10-9--------------7-9-10--------|---------------12-10-7-8-10---------------|
--------------------------------------------------|----------------------------|--------------------------------------12-13-15-12-|--12--------------15r---15--|-----------12-11----11-------11-12-14-------------|------------14-12-----------|--10-12-14-------14----12-14----------------------|----------------------------|--------------------------------------------------|----------------------------|--------------------------------------------------|----------------------------|
---------------------------------|------------------------|--15r-----13--12-13-12-----------|------------------------|------------------------14---12--|--11--------------------|---------------------------------|----------13--13--------|---------------------------------|------------------------|---------------------------------|------------------------|
---------------------------------------12-|------------------------------------13----|---------------12-16-12----------14-------|------------14----------14-15-16----------|------14-15-------------------------------|------------------------------------------|
--14------11--11-------------------11-14-11-|--------------------------------13----------|-----------------------11-14-14-------------|--------------------13----------------------|--------------------------------------------|--------------------------------------------|
-----------------------------14-17-14----------------------------17-20-17---------13-13-------------------16----------16-16-------------------19----------19-19---------14-11----14-17-17-------------------17-14----17-20-20---------------------------------16----------------------------------19--------------------------------------------------------------------------------------------------------------------------------------------------------------------------------------------
----------------------|------|----|----|----|----|----|-------------------|--22b---22b-----------|------|----|----|----|----|----|--0b---------------|----------------------|------|----|----|----|----|----|--0b---------------|----------------------|------|----|----|----|----|----|-------------------|----------------------|------|----|----|----|----|----|-------------------|----------------------|------|----|----|----|----|----|-------------------|
-------------------------|--------------------------|-------------------------|-------------------------|--------------------------|-------------------------|-------------------------|--------------------------|-------------------------|--2----------------------|--------------------------|--2----------------------|--2-------------5-----8--|-------8------------8--5--|--2-------------5-----8--|--0----0--0--0--3--0--6--|----0--6--0-0-0--0--6--3--|--0----0--0--0--3--0--6--|
--------------------------|-------------------------|--------------------------|--------------------------|-------------------------|--------------------------|--------------------------|-------------------------|--------------------------|--------------------------|--2----------------------|--------------------------|-------8------------8--5--|--2-------------5-----8--|-------8------------8--5--|----0--6--0-0-0--0--6--3--|--0----0--0--0--3--0--6--|----0--6--0-0-0--0--6--3--|
-------------------------|----------------------|---------------------------|-------------------------|----------------------|---------------------------|-------------------------|----------------------|---------------------------|--2----------------------|----------------------|--2---------------------3--|--2-------------5-----8--|----8----8----8----8--|--2----2--------------2-1--|--0----0--0--0--3--0--6--|----6----6----6----6--|--0----0----0-0-2-2-3------|
-------------------------|---------------------------|-------------------------|-------------------------|---------------------------|-------------------------|-------------------------|---------------------------|-------------------------|-------3-----------3-----|--2---------------------3--|-------3-----------3-----|-------1-----------1--2--|--2----2--------------2-1--|-------1-----------1--2--|----0-----0--0--0-----3--|--0----0----0-0-2-2-3------|----0-----0--0--0-----3--|
----------------------------|-------------------------|----------------------------|-------------------------|----------------------------|-------------------------|--2--------------------9----|-------------------------|--2----2----7-7-9-9-10---8--|-------8-----------8--5--|--0----0-----------------6--|----0--6--0--0--0--6--3--|
----------------------------|----------------------|----------------------------|----------------------|----------------------------|----------------------|--2--------------------9----|----------------------|--2----2----7-7-9-9-10---8--|----8----8----8----8--|--0----0-----------------6--|----6----6----6----6--|
--12-7-------7-12-7-------7-12-7----|--------------------|-------8---8--------8---8-----------|--------------------|---------9------------9-------------|--------------------|------------------------------------|--------------------|---------------------------------8--|--------8------8----|---------------------------------6--|--------6------6----|
--12-7-------7-12-7-15-12----------12----|--------------------|-------8---8--------------12----12-------|--------------------|---------9-------------------12----------|--------------------|-----------------------------------------|--------------------|--------------------------------------8--|--------8------8----|--------------------------------------6--|--------6------6----|
-------------------------|--------------------------|-------------------------|-------------------------|--------------------------|-------------------------|-------------------------|--------------------------|-------------------------|--2----------------------|--------------------------|--2----------------------|--2-------------5-----8--|-------8------------7--5--|--2-------------5-----8--|--0----0--0--0--3--0--6--|----0--6--0-0-0--0--5--3--|--0----0--0--0--3--0--6--|
----------------------|--12------12----------------------|----------------------|------------------13--12--10------|-------------------9--|------11------12--------------12--|----------------------|----------------------------------|----8----8----8-------|----------------------------------|----6----6----6-------|----------------------------------|
---------------------------|------------------------|---------------------------|------------------------|--9----------12------12-14-|--15----------15--19----|---------10----------------|------------------------|---------------------------|------------------------|---------------------------|------------------------|
----------19----20----22----|--------------------------|----------------------------|--22b-------22b-22b-------|----------------------------|----------------------21--|----------------------------|--------------------------|----------------------------|--------------------------|----------------------------|--------------------------|
-------------------17-19-20-19-20-19-17-------|----------17-19-20----------------------20-19-|----------------------------------------------|----------------------------------------------|----------------------------------------------|----------------------------------------------|
--20-19-17-16-17----16----------------------16--------------------------|-----------------18----18-17-18-17-15-17-18----18-17-15--------20-18-17-|--------------------------------------------------------17-16-----------|------------------------------------------------------------------------|------------------------------------------------------------------------|------------------------------------------------------------------------|
-----20----------------18----------------------------------|--18----19-17-15-17-19----20-19-17-------------19b---19-17-|-----------------------------------19-17-16----------------|--------------------------------------------19-------------|-----------------------------------------------------------|-----------------------------------------------------------|
--------------------|------------------|------------------------------|--------------------|------------------|------------------------------|--19b---------------|------------------|------------------------------|--------------------|------------------|--2---------------------------|--------------------|------------------|--2--------------------2-2-3b-|--------------------|------------------|--0----0-0-0-0-0-0-3-3--------|
--------------------------|-----------------------|------------------|--------------------------|-----------------------|------------------|---------------5--4----2--|----------4----5----7--|------------------|---------------5--4----2--|--5--3----4----5----7--|------------------|----3--2-2----------------|-----------------------|------------------|-----------3-3------------|-----------------------|------------------|
-------------------|--------------------|------------------|------------------||-------------------|--------------------|------------------|------------------||-------------------|--------------------|------------------|------------------||-------------------|--------------------|------------------|------------------||----------2--------|----------10--------|------------------|------------------||----------0--------|--------------------|------------------|------------------||
Tap to rate this tab
 
# A B C D E F G H I J K L M N O P Q R S T U V W X Y Z