Alejandro Silva - Lagarto tab

   
                                                    
E||------------------9-------------------------------|B||----------------9---9----------------------9----9-|G||-------------10-------10----------------10---10---|D||----------11-------------11----------11-----------|A||-------11-------------------11----11--------------|E||--9-13-------------------------13-----------------|
--------------------------------------12----------------------------12----|--12----------------------------12-------12----------------------12----12-|-----13----------------------13----13-------13----------------13----------|--------14----------------14-------------------14----------14-------------|-----------14----------14-------------------------14----14----------------|--------------16-12-16-------------------------------16-------------------|
--14-11----------------------------11-14-11----16-11----14-11----12-11----|--------12----------------------12----------12-------12-------12-------12-|-----------11----------------11-------------------------------------------|--------------13----------13----------------------------------------------|-----------------14----14-------------------------------------------------|--------------------14----------------------------------------------------|
--14----------------------------------14----------------------------------|-----14----------------------------14----14----------------------------14-|--------15----------------------15----------15----------------------15----|-----------16----------------16----------------16----------------16-------|--------------16----------16----------------------16----------16----------|-----------------18-14-18----------------------------18-14-18-------------|
--------------------13----------------16-13----------13-|--14-------------------14----------14-------14----14----|-----13----------13-------13----13-------------13-------|--------15----15-------------15-------------------------|-----------16-------------------------------------------|--------------------------------------------------------|
--12----------------16-12----------12-19-18-16----------------12-14-16-18-|-----12----------12-------12----12-------------------12-14-16-------------|--------13----13-------------13----------------13-15----------------------|-----------14-------------------------------------------------------------|--------------------------------------------------------------------------|--------------------------------------------------------------------------|
--19----------------------------------------------------------------------|-----19----------19-19----------------21-16-19-16-17-16-19----------------|--------20----20-------20----------20----------------------20----------20-|-----------21-------------21----21----------------------------21----21----|-----------------------------21----------------------------------21-------|--------------------------------------------------------------------------|
--------------------------------------------------------------------9-14-|--19-------------------19----------------------------------------11------|-----18-------------18----18----------------------------------11---------|--------20-------20----------20----------------------------11------------|--------------21----------------21-------------------11-13---------------|-----------21----------------------21-18-16-14-12-14---------------------|
--16-12----------12-16-11----------11-12-9---------9-11-7-------7-|--------14----14----------12----12---------10---10--------9---9---|-----------13----------------13---------------9-------------8-----|------------------------------------------------------------------|------------------------------------------------------------------|------------------------------------------------------------------|
--9-5-------5-9-5-------5-11-7-------7-11-7-------7-|------7---7-------7---7--------9---9--------9---9---|--------6-----------6------------8------------8-----|----------------------------------------------------|----------------------------------------------------|----------------------------------------------------|
--16-12----------12-16-11----------11-12-9---------9-11-7-------7-|--------14----14----------12----12---------10---10--------9---9---|-----------13----------------13---------------9-------------8-----|------------------------------------------------------------------|------------------------------------------------------------------|------------------------------------------------------------------|
--9-5-------5-9---5-----5-11-7-------7-11---7-----7-|------7---7-----7-----7--------9---9------9-----9---|--------6-----------6------------8------------8-----|----------------------------------------------------|----------------------------------------------------|----------------------------------------------------|
--16-12----------12-12-9---------9-14-11----------11-19-14----------14-|--------14----14---------10---10---------12----12----------16----16----|-----------13---------------9---------------11----------------16-------|-----------------------------------------------------------------------|-----------------------------------------------------------------------|-----------------------------------------------------------------------|
--21-16----------16-17-12----------12-19-14----------14-14-9----------9-|--------17----17----------14----14----------16----16---------10----10---|-----------18----------------14----------------16---------------11------|------------------------------------------------------------------------|------------------------------------------------------------------------|------------------------------------------------------------------------|
--16-12----------12-12-9---------9-14-11----------11-11----------------|--------14----14---------10---10---------12----12-------12----------12-|-----------13---------------9---------------11-------------11----11----|--------------------------------------------------------------13-------|-----------------------------------------------------------------------|-----------------------------------------------------------------------|
--9-5---------------5-9-5-11-8---------------------------|------7-----------7------------9---------9-11-13-9-11-13-|--------6-------6----------------8-----------------------|----------7---7--------------------10--------------------|------------9-------------------------11-----------------|---------------------------------------------------------|
--16-12----------12-16-12-14-12-16-12-21-16-------------------------------|--------14----14----------------------------17----------------------------|-----------13----------------------------------18-------------13-16-14-13-|--------------------------------------------------18-------14-------------|-----------------------------------------------------19-16----------------|--------------------------------------------------------------------------|
--------------------------------------17-12-------------------------------|--14----------------17-14-16-14-17-14-------14----------------------------|-----14----------14----------------------------14----------------14-13----|--------14----14----------------------------------14----------14-------14-|-----------16----------------------------------------16-12-16-------------|--------------------------------------------------------------------------|
-----------14-17-16-14-------14--------------------------------------|--------14-------------14-------14----------14-----------------------|-----14-------------------14-------14----14----14--------------------|--16----------------------------------16----------16-----------------|-----------------------------------------------------16--------------|--------------------------------------------------------17-16-14-12--|
--------------------14----------------------------------------------------|-----------------16----17-16----------14----------------------------------|--------------16-------------16----------16-14----------------------------|-----------18-------------------18-------------18-16-14----14-16-14-------|--------18-------------------------18-------------------18----------18-14-|--16-19-------------------------------------------------------------------|
--16-12----------12-16-12-14-12-16-12-21-16-------------------------------|--------14----14----------------------------17----------------------------|-----------13----------------------------------18-------------13-16-14-13-|--------------------------------------------------18-------14-------------|-----------------------------------------------------19-16----------------|--------------------------------------------------------------------------|
--------------------------------------17-12-------------------------------|--14----------------17-14-16-14-17-14-------14----------------------------|-----14----------14----------------------------14----------------14-13----|--------14----14----------------------------------14----------14-------14-|-----------16----------------------------------------16-12-16-------------|--------------------------------------------------------------------------|
-----------14-17-16-14-------14--------------------------------------|--------14-------------14-------14----------14-----------------------|-----14-------------------14-------14----14----14--------------------|--16----------------------------------16----------16-----------------|-----------------------------------------------------16--------------|--------------------------------------------------------17-16-14-12--|
--------------------14----------------12----------------------------------|-----------------16----17-16-------------14----------------------------16-|--------------16-------------16-------------14----------------------16----|-----------18-------------------18-------------14----------------16-------|--------18-------------------------18-------------16-12----14-18----------|--16-19-------------------------------------------------14----------------|
--13-9---------------------------------------------|-------9---------------------------9-------14-9----|---------10---------------------10---10---------10-|------------11---------------11---------11---------|---------------11---------11-----------------------|------------------13-9-13--------------------------|
--------------------------------------12----------------------------12----|--12----------------------------12-------12----------------------12----12-|-----13----------------------13----13-------13----------------13----------|--------14----------------14-------------------14----------14-------------|-----------14----------14-------------------------14----14----------------|--------------16-12-16-------------------------------16-------------------|
--14-11----------------------------11-14-11----16-11----15-11----12-11----|--------12----------------------12----------12-------12-------12-------12-|-----------11----------------11-------------------------------------------|--------------13----------13----------------------------------------------|-----------------14----14-------------------------------------------------|--------------------14----------------------------------------------------|
--14----------------------------------14--------------------------|-----14----------------------------14----14-----------------------|--------15----------------------15----------15----------15--11----|-----------16----------------16----------------16-----------------|--------------16----------16----------------------16----13--9-----|-----------------18-14-18----------------------------18-----------|
--------------------13----------------16-13----------13-|--14-------------------14----------14-------14----14----|-----13----------13-------13----13-------------13-------|--------15----15-------------15-------------------------|-----------16-------------------------------------------|--------------------------------------------------------|
--12----------------16-12----------12-19-16----------16-24-19----------19-|-----12----------12-------12----12----------17----17----------21----21----|--------13----13-------------13----------------16----------------21-------|-----------14-------------------------------------------------------------|--------------------------------------------------------------------------|--------------------------------------------------------------------------|
--23-19----------19-24-19-23-19-21-19-23-19----------19-24-19-23-19-21-19-|--------19----19----------------------------19----19----------------------|-----------20----------------------------------20-------------------------|--------------------------------------------------------------------------|--------------------------------------------------------------------------|--------------------------------------------------------------------------|
--14----------------14-12-11-12-11----11----------------------------------|-----14----------14----------------14----14-12-14-12-11-12-11----11-------|--------15----15----------------------------------------------13----13-11-|-----------16-------------------------------------------------------------|--------------------------------------------------------------------------|--------------------------------------------------------------------------|
--11-7----------------------7-11-9-7-9-7-6-|-------9------------------9----------------|---------8--------------8------------------|-----------9----------9--------------------|-------------11----11----------------------|----------------11-------------------------|
--7-4---------------4-7-6-7-6-4-----------4-7-6-4-|------5-----------5-------------5-------5---------|--------4-------4-----------------4---4-----------|----------6---6---------------------6-------------|------------7-------------------------------------|--------------------------------------------------|
--11-7----------------------7-11-9-7-9-7-6-|-------9------------------9----------------|---------8--------------8------------------|-----------9----------9--------------------|-------------11----11----------------------|----------------11-------------------------|
--7-4---------------4-7-6-7-6-4-----------4-7-6-4-|------5-----------5-------------5-------5---------|--------4-------4-----------------4---4-----------|----------6---6---------------------6-------------|------------7-------------------------------------|--------------------------------------------------|
--11-7----------------------7-11-9-7-9-7-6-|-------9------------------9----------------|---------8--------------8------------------|-----------9----------9--------------------|-------------11----11----------------------|----------------11-------------------------|
--14-11----11-------------------------------------------------------|--------12----12----12----------------------------------------------|-----------------11----11----11-------------------------------------|--------------------------13----13----13----------------------------|-----------------------------------14----14----14-------------------|--------------------------------------------14----14-11-14-11-7-11--|
--------------------17----------------------------------16----------------|-----------------17----17----------------------------17----17-------------|--------------18----------18----------------------18----------18----------|-----------19----------------19----------------19----------------19-------|--------19----------------------19----------19----------------------19----|--17-21----------------------------21-17-21----------------------------21-|
--------------------17----------------17----------------16b---||-----------------17----17-16----16-17----17-16----16-17-------||--------------18-------------18----------------18-------------||-----------19-------------------------------------------------||--------19----------------------------------------------------||--17-21-------------------------------------------------------||
Tap to rate this tab
 
# A B C D E F G H I J K L M N O P Q R S T U V W X Y Z