Alexisonfire - Born And Raised chords

Intro

-------------33333333----------11111111-------- --------|----11111111-33333333----------11111111-------- ---1----|----22222222-------------------22222222-------- ---2----|----22222222----------22222222-33333333-------- 2x ---2----|-------------22222222-22222222-33333333-------- --------|-------------------------------11111111-------- --------|
Verse All blossoms die in the light of our new culture...
-------333----1111--------|----11-333----1111--------|----22--------------------|----22-----22-3333--------|-------222-22-3333--------| 3x--------------------------|
-------333----------------|----11-333----------------|----22--------2-2-2-2-0---|----22-----22-----------2-|-------222-22-------------|--------------------------|
I’ve lost all direction...
-------------33333333----------11111111--------|----11111111-33333333----------11111111--------|----22222222-------------------22222222--------|----22222222----------22222222-33333333--------| 2x-------------22222222-22222222-33333333--------|-------------------------------11111111--------|
Breakdown Escape, escape...
----2222222222---1111111111----|----3333333333-1-1111111111----|----2222222222-2-2222222222----|---------------2-3333333333----|-----------------3333333333----|-----------------1111111111----|
----2222222222---11111-33333---|----3333333333-1-11111-33333---|----2222222222-2-22222---------|---------------2-33333---------|-----------------33333-22222---|-----------------11111---------|
Chorus We were born and raised (And raised)...
-------------33333333----------11111111-------- --------|----11111111-33333333----------11111111-------- ---1----|----22222222-------------------22222222-------- ---2----|----22222222----------22222222-33333333-------- 2x ---2----|-------------22222222-22222222-33333333-------- --------|-------------------------------11111111-------- --------|
Verse Breakdown Chorus Breakdown 2 uncountable numbers written in new fallen snow...
-------333-11----------- ------------1111-3--|----11-333-11-11-------- ----1111----1111-3--|----22-----22-22-2-0---- ----2222----2222----|----22-----33-22----2--- 3x ----2222----3333----|-------222-33----------- ------------3333-2--|-----------11----------- ------------1111----|
Then: We hope and pray and ask, but we are never shown
-------333-11----------- ------------1111-3----|----11-333-11-11-------- ----1111----1111-3-1--|----22-----22-22-2-0---- ----2222----2222---2--|----22-----33-22----2--- 3x ----2222----3333---2--|-------222-33----------- ------------3333-2----|-----------11----------- ------------1111------|
Chorus 2x At the last part of chorus, you do like that: We were born and raised (And raised) Born and Raised (And raised)
-------------33333333----------1-------- --------|----11111111-33333333----------1-------- ---1----|----22222222-------------------2-------- ---2----|----22222222----------22222222-3-------- ---2----|-------------22222222-22222222-3-------- --------|-------------------------------1-------- --------|
My first Chrods... JohnnyCash
Tap to rate this tab
 
# A B C D E F G H I J K L M N O P Q R S T U V W X Y Z