Alice Cooper – I Wish I Were Born In Beverly Hills tab

great song by a great artist but not sure that's the correct tab of this song.intro:---------------------------------------------|--6-5--6-5---8-7--8-7---4-3--4-3---6-5-6-----|--5-5--5-5---7-7--7-7---3-3--3-3---5-5-5-----|--7-5--7-5---9-7--9-7---5-3--5-3---7-5-7-----|---------------------------------------------|---------------------------------------------|
-------------------------------------------------------|--6-5--6-5---8-7--8-7---4-3--4-3---8-7-6-5-4-3--6------|--5-5--5-5---7-7--7-7---3-3--3-3---7-7-5-5-3-3--5------|--7-5--7-5---9-7--9-7---5-3--5-3---9-7-7-5-5-3--7------|-------------------------------------------------------|-------------------------------------------------------|
when he begins to sing:
------------------------------------------------------------|-8--88--888-----8--88--888---4---6----6-56--87-65-43-6------|-7--77--777-----7--77--777---3---5----5-55--77-55-33-5------|-9--99--999-----9--99--999---5---7----7-57--97-75-53-7------|------------------------------------------------------------|------------------------------------------------------------|
-------------------------------------------------------------|-8--88--888-----8--88--888---4----6--65-65--6x6x6------------|-7--77--777-----7--77--777---3----5--55-55--5x5x5ring--------|-9--99--999-----9--99--999---5----7--75-75--7x7x7------------|-------------------------------------------------------------|-------------------------------------------------------------|
chorus:
----------------------------------|----------------------------------|----------------------------------|--55-5-7-5-7-5--------------------|--33-3-3-3-3-3--55-5-7-5-7-5------|----------------33-3-3-3-3-3------|
----------------------------------|----------------------------------|----------------------------------|--55-5-7-5-7-5--------------------|--33-3-3-3-3-3--55-5-7-5-7-5------|----------------33-3-3-3-3-3------|
---------------------------------------|---------------------------------------|-9-99----------------------------------|-9-99-ring-----------------------------|-7-77----------------------------------|---------------------------------------|
after chorus:-----------------------------------|--6-5--6-5---8-7--8-7---4-3--4-3---|--5-5--5-5---7-7--7-7---3-3--3-3---|--7-5--7-5---9-7--9-7---5-3--5-3---|-----------------------------------|-----------------------------------|
she says she's an actress...:------------------------------------------------------------|-8--88--888-----8--88--888---4---6----6-56--87-65-43-6------|-7--77--777-----7--77--777---3---5----5-55--77-55-33-5------|-9--99--999-----9--99--999---5---7----7-57--97-75-53-7------|------------------------------------------------------------|------------------------------------------------------------|
-------------------------------------------------------------|-8--88--888-----8--88--888---4----6--65-65--6x6x6------------|-7--77--777-----7--77--777---3----5--55-55--5x5x5ring--------|-9--99--999-----9--99--999---5----7--75-75--7x7x7------------|-------------------------------------------------------------|-------------------------------------------------------------|
chorus:
----------------------------------|----------------------------------|----------------------------------|--55-5-7-5-7-5--------------------|--33-3-3-3-3-3--55-5-7-5-7-5------|----------------33-3-3-3-3-3------|
----------------------------------|----------------------------------|----------------------------------|--55-5-7-5-7-5--------------------|--33-3-3-3-3-3--55-5-7-5-7-5------|----------------33-3-3-3-3-3------|
---------------------------------------|---------------------------------------|-9-99----------------------------------|-9-99-ring-----------------------------|-7-77----------------------------------|---------------------------------------|
after the second chorus:
--------------------------------------------------|-----------------------8--7-5-7--5--8--7-5-7--5---|-5-------3--------2----7b-7-5-7b-5--7b-7-5-7b-5---|-5-ring--3-ring---2-------------------------------|-3-------1--------0-------------------------------|--------------------------------------------------|
------------------------------------8---7--5----|-----------------------8--7-5-7--5--7b--7b-5----|-5-------3--------2----7b-7-5-7b-5--------------|-5-ring--3-ring---2-----------------------------|-3-------1--------0-----------------------------|------------------------------------------------|
you'd better take your hand of my high...------------------------------------------------|------------------------------------------------|-5----------11-11-11-11-------------------------|-5--ring----11-11-11-11-------------------------|-3-----------9--9--9-9--------------------------|------------------------------------------------|
chorus:
----------------------------------|----------------------------------|----------------------------------|--55-5-7-5-7-5--------------------|--33-3-3-3-3-3--55-5-7-5-7-5------|----------------33-3-3-3-3-3------|
----------------------------------|----------------------------------|----------------------------------|--55-5-7-5-7-5--------------------|--33-3-3-3-3-3--55-5-7-5-7-5------|----------------33-3-3-3-3-3------|
---------------------------------------|---------------------------------------|-9-99----------------------------------|-9-99-ring-----------------------------|-7-77----------------------------------|---------------------------------------|
then.... play it as many times as the rest of the song the third time(not sure)you'll play it there is a second guitar.the first guitar goes on
---------------------------------------------|--6-5--6-5---8-7--8-7---4-3--4-3---6-5-6-----|--5-5--5-5---7-7--7-7---3-3--3-3---5-5-5-----|--7-5--7-5---9-7--9-7---5-3--5-3---7-5-7-----|---------------------------------------------|---------------------------------------------|
guitar two:
---------------------------------------------------|---------------------------------------------------|-12-14b14b--15-14-12-------------------------------|---------------------15-14-12--12b12b---12-14b-14~-|---------------------------------------------------|---------------------------------------------------|
---------------------------------------------------|---------------------------------------------------|---------------------------------15b-15b-----------|-14-14-14-14b12-14-14-14-14b12---------------------|---------------------------------------------------|---------------------------------------------------|
--------13------13-----13-------------------14-16---14-16----14-16-|-----13-------13----13---------------16b-16------16-------16-------|-15b-------15b---15b-------15-15-15b-------------------------------|-------------------------------------------------------------------|-------------------------------------------------------------------|-------------------------------------------------------------------|
-16-16b14--------------------------------------------------------------|-------------14-16---14-16----14-16--16--16b14---14-16-16b--14-16-16b--|-----------16------16------16------------------------------------------|-----------------------------------------------------------------------|-----------------------------------------------------------------------|-----------------------------------------------------------------------|and the solo is continued...
Please rate this tab:
x1.0