Alice In Chains - Man In The Box tab

tuning: Eb Ab Db Gb Bb eb

INTRO x 2gtr. 2--------------------------------------------------|--------------------------------------------------|--------------------------------------------------|--9---9--9---9---9--9---9---9--9---9---9----------|--7-x-7--7-x-7-x-7--7-x-7-x-7--7-x-7-x-7--------5-|--0-x-0--0-x-0-x-0--0-x-0-x-0--0-x-0-x-0--0-5h7---|
gtr. 1--------------------------------------------------|--------------------------------------------------|--------------------------------------------------|--------------------------------------------------|--2-x-2--2-x-2-x-2--2-x-2-x-2--2-x-2-x-2--------5-|--0-x-0--0-x-0-x-0--0-x-0-x-0--0-x-0-x-0--0-5h7---|
pre-verse thing with wah-wah and talk box x 2---------------------------------------------------|---------------------------------------------------|-------7~~~-9~~~-----------------------------------|--9~~~-----------7~~~-9~~~s5~~~--------------------|--------------------------------7--7~~~---------5--|------------------------------------------0-5h7----|
VERSE part Agtr. 2 with wah-wah pedal--------------------------------------------------|--------------------------------------------------|--------------------------------------------------|--9---9--9---9---9--9---9---9--9---9---9----------|--7-x-7--7-x-7-x-7--7-x-7-x-7--7-x-7-x-7--------5-|--0-x-0--0-x-0-x-0--0-x-0-x-0--0-x-0-x-0--0-5h7---|
gtr. 1--------------------------------------------------|--------------------------------------------------|--------------------------------------------------|--------------------------------------------------|--2-x-2--2-x-2-x-2--2-x-2-x-2--2-x-2-x-2--------5-|--0-x-0--0-x-0-x-0--0-x-0-x-0--0-x-0-x-0--0-5h7---|
VERSE part Bgtr. 2 with wah-wah pedal--------------------------------------------------|--------------------------------------------------|--------------------------------------------------|--9---9--9---9---9--9---9---9--9------------------|--7-x-7--7-x-7-x-7--7-x-7-x-7--7-x--5p0h5s7-------|--0-x-0--0-x-0-x-0--0-x-0-x-0--0-x----------------|
gtr. 1--------------------------------------------------|--------------------------------------------------|--------------------------------------------------|--------------------------------------------------|--2-x-2--2-x-2-x-2--2-x-2-x-2--2-x--5p0h5s7-------|--0-x-0--0-x-0-x-0--0-x-0-x-0--0-x----------------|
PRE CHORUSgtr. 1 and 2 no wah-wah---------------------------------------------------|---------------------------------------------------|---------------------------------------------------|-5-5-5-5-5-5-5-5-5-5-5-5-5-5-5-5-5-5-5-5-5-5-5-5-5-|-5-5-5-5-5-5-5-5-5-5-5-5-5-5-5-5-5-5-5-5-5-5-5-5-5-|-3-3-3-3-3-3-3-3-3-3-3-3-3-3-3-3-3-3-3-3-3-3-3-3-3-|"Wooooooooon't yoooooooouuuu cooooommmmeee annnnnd
gtr. 2 with wah wah---------------------------------------------|---------------------------------------------|-------------------------9~~--7~~------------|----------------------------------9--8--7--5-|-5-x-5s7~~-----------------------------------|---------------------------------------------|
gtr. 1---------------------------------------------|---------------------------------------------|---------------------------------------------|---------------------------------------------|-2-x-2--2-x-2-x-2--2-----7~~--5~~------------|-0-x-0--0-x-0-x-0--0--------------7--6--5--3-|
CHORUSboth guitars, gtr. 2 with wah wah still (that 3 in () is optional it can also be a 0)--0~~~--3~~~----------------- --0~~~--3~~~--2~~~--0~~~-|--0~~~--3~~~--7~~~----------- --0~~~-(3)~~--3~~~--2~~~-|--1~~~--4~~~--7~~~--6~~~----- or --1~~~--0~~~--2~~~--2~~~-|--2~~~--5~~~--7~~~--7~~~----- --2~~~--0~~~--0~~~--2~~~-|--2~~~--5~~~--5~~~--7~~~----- --2~~~--2~~~--------0~~~-|--0~~~--3~~~--------5~~~----- --0~~~--3~~~-------------|
then back to this x 2gtr. 1--------------------------------------------------|--------------------------------------------------|--------------------------------------------------|--------------------------------------------------|--2-x-2--2-x-2-x-2--2-x-2-x-2--2-x-2-x-2--------5-|--0-x-0--0-x-0-x-0--0-x-0-x-0--0-x-0-x-0--0-5h7---|
gtr. 2 with wah wah and talk box---------------------------------------------------|---------------------------------------------------|-------7~~~-9~~~-----------------------------------|--9~~~-----------7~~~-9~~~s5~~~--------------------|--------------------------------7--7~~~---------5--|------------------------------------------0-5h7----|
2nd pre chorus thing after "won't you come and save me?" partgtr. 2 with wah wah-------------------------------------------------|---------------------------15--------------------|---------------------------14b/r-14-12-----------|---------------------------------------14-12-----|-5-x-5s7~~-----------------------------------14--|-------------------------------------------------|
gtr. 1-------------------------------------------------|-------------------------------------------------|-------------------------------------------------|-------------------------------------------------|-2-x-2--2-x-2-x-2--2-----------------------------|-0-x-0--0-x-0-x-0--0-----------------------------|
SOLOgtr. 2 with wah wah (im trying to time it with the rhythm so if it looks like theres not much as it should be its cuz of that)----------------------------------------------------------------------------|----------------------------------------------------------------------------|----------------------------------------------------------------------------|-0h2p0h2p0h2p0h2p0h2p0h2p0-----------12-14b~~~-14-12------------------------|---------------------------12h14p12-------------------14-13-12----12h14p12--|---------------------------------------------------------------15-----------|
gtr. 1--------------------------------------------------|--------------------------------------------------|--------------------------------------------------|--------------------------------------------------|--2-x-2--2-x-2-x-2--2-x-2-x-2--2-x-2-x-2--------5-|--0-x-0--0-x-0-x-0--0-x-0-x-0--0-x-0-x-0--0-5h7---|
gtr. 2 with wah-wah still------------------------------------------------------12-12h15-15p12-12-|--------------------------12h15p12----12h15p12----15~~------------------|--14b14b14b14b14b-p12--------------14----------14-----------------------|----------------------12------------------------------------------------|------------------------------------------------------------------------|------------------------------------------------------------------------|
gtr. 1--------------------------------------------------|--------------------------------------------------|--------------------------------------------------|--------------------------------------------------|--2-x-2--2-x-2-x-2--2-x-2-x-2--2-x--5p0h5s7-------|--0-x-0--0-x-0-x-0--0-x-0-x-0--0-x----------------|
gtr. 2 with wah-wah still still...---------------------------------------------------------------------|-------------------------------------------12------------------------|-----------0--------------12-14-12------------15-14-12-14~~-p12------|--------------2~~~--12h14----------14-12~~----------------------14~~-|------x-x------------------------------------------------------------|---3--x-x------------------------------------------------------------|
gtr. 1---------------------------------------------------|---------------------------------------------------|---------------------------------------------------|-5-5-5-5-5-5-5-5-5-5-5-5-5-5-5-5-5-5-5-5-5-5-5-5-5-|-5-5-5-5-5-5-5-5-5-5-5-5-5-5-5-5-5-5-5-5-5-5-5-5-5-|-3-3-3-3-3-3-3-3-3-3-3-3-3-3-3-3-3-3-3-3-3-3-3-3-3-|
gtr. 2 with wah-wah still still still--------15h17b/s12--12--|---15h17----------------|------------------------|------------------------|------------------------|------------------------|
gtr. 1 with wah-wah (GASP)-------------|-------------|-------------|-------------|-5-x-5s7~~~--|-------------|
gtr. 2 still wah-wah----------------------------------|-------------------8~~------------|-------------------7~~------------|--x---x------------6~~---------2--|--x---x------------7~~------------|--x-x-x-sto7thfret---------3p0----|
gtr. 1------------------------------------------------------------|------------------------------------------------------------|------------------------------------0h2---------------------|----------------------------------------0h2-----------------|-2-x-2--2-x-2-x-2--2-------------------------2p0----2p0-----|-0-x-0--0-x-0-x-0--0-----------------------------0-------0--|
thats it, then just continue with the chorus and the after chorus riff with the talk box
Tap to rate this tab
 
# A B C D E F G H I J K L M N O P Q R S T U V W X Y Z