Alice In Chains - Put You Down tab

Put You Down
Alice In Chains
Facelift
Guitar Tabs
Tabs by Yohomyth

Tuning: Eb (Eb,Ab,Db,Gb,Bb,Eb)


Intro/Chorus
============

1:-----------------------|-----------------------|2:-----------------------|-----------------------|3:-----------------------|-2---------------------|4:-4-4-----2-----2-------|-2-----------2---4-4---|5:-4-4-3h4---3h4---------|-0-0-0-3h4-0---0---0---|6:-2-2-------------5-2---|-----------------------|
1:-------------------------|---------------------|2:-------------------------|-------4---2-----2---|3:-4-----------------------|-4-4---4---2-----2---|4:-4---------2-----2-------|-4-4---4---2-3b4-2---|5:-2-2-2-3h4---3h4-----2---|-2-2-2---2-----------|6:-------------------5-----|---------------------|
1:-----------------------|-----------------------|2:-----------------------|-----------------------|3:-----------------------|-2---------------------|4:-4-4-----2-----2-------|-2-----------2---4-4---|5:-4-4-3h4---3h4---------|-0-0-0-3h4-0---0---0---|6:-2-2-------------5-2---|-----------------------|
1:-------------------------|---------------|2:-------------------------|---------------|3:-4-----------------------|-4-4--5--4-2---|4:-4---------2-----2-------|-4-4--5--4-2---|5:-2-2-2-3h4---3h4-----2---|-2-2--3--2-0---|6:-------------------5-----|---------------|
Verse A =======
1:----------------------------|2:----------------------------|3:----------------------------|4:-------2---------2-------2--|5:-3-4-------3-4-------3-4----|6:-----2---2-----2---2--------|
Verse fill =====
1:-----------------------|2:-----------------------|3:-----------------4-4---|4:-------2---------4-4---|5:-3-4-------3-4---2-2---|6:-----2---2-----2-2-2---|
Verse B =======
1:-4--7--9--9----9--|-4--7--9--10---10-|2:-4--7--9--9----9--|-4--7--9--10---10-|3:-5--8--10-10---10-|-5--8--10-11---11-|4:-6--9--11-11---11-|-6--9--11-12---12-|5:-6--9--11-11---11-|-6--9--11-12---12-|6:-4--7--9--9----9--|-4--7--9--10---10-|
Bridge ======
1:--------------|--------|2:---------4-2--|--------|3:---------4-2--|--------|4:-4-------4-2--|--4-----|5:-4------------|--------|6:-2-----2------|--------|
Ending ======
1:----------------------------|2:----------------------------|3:----------------------------|4:-------5---------5-------5--|5:-6-7-------6-7-------6-7----|6:-----5---5-----5---5--------|
1:----------------------------|2:----------------------------|3:----------------------------|4:-------7---------7-------7--|5:-8-9-------8-9-------8-9----|6:-----7---7-----7---7--------|
1:----------------------------|2:----------------------------|3:----------------------------|4:-------2---------2-------2--|5:-3-4-------3-4-------3-4----|6:-----2---2-----2---2--------|
1:----------------------------|2:----------------------------|3:----------------------------|4:-------2---------2-------2--|5:-3-4-------3-4-------3-4----|6:-----2---2-----2---2--------|
Tap to rate this tab
 
# A B C D E F G H I J K L M N O P Q R S T U V W X Y Z