Alien Ant Farm - Wish tab

|----2----2-------------|-----------------------------------||----2----2-------------|-----------------------------------||-----------------------|-----------------------------------||-44---44---5-----4-----|-4444444444444444-7777777-88888888-||-44---44-------3-----2-|-4444444444444444-7777777-88888888-||-22---22-----3-----2---|-2222222222222222-5555555-66666666-| ................ ....... ........
|-------------------------------------||-------------------------------------||--------------------------------5555-||-4444444444444444-77777777-8888-5555-||-4444444444444444-77777777-8888-3333-||-2222222222222222-55555555-6666------| ................ ........ ....
|------------------------------------------------------||------------------------------------------------------||------------------------------------------------------||-44444444444444444-33333333-22222222-4444444444444444-||-44444444444444444-33333333-22222222-4444444444444444-||-22222222222222222-11111111-00000000-2222222222222222-| ................. ........ ........ ................
|-------------------||-------------------||----------88888888-||-33333333-xxxxxxxx-||-33333333-66666666-||-11111111----------| ........
|-----2-----2-------------||---2-----2---------------||-------------------------||-4-----4-----5-----4-----||-4-----4---------3-----2-||-2-----2-------3-----2---|
|------------------------------------------------------------------------||------------------------------------------------------------------------||-------------------------------------------------------------------5555-||-4444444444444444-33333333-22222222-4444444444444444-33333333-2222-5555-||-4444444444444444-33333333-22222222-4444444444444444-33333333-2222-3333-||-2222222222222222-11111111-00000000-2222222222222222-11111111-0000------| ................ ........ ........ ................ ........ ....
|-----------------------------------------------------------------------||-----------------------------------------------------------------------||--------------------------------------------------------------88888888-||-4444444444444444-33333333-22222222-4444444444444444-33333333-xxxxxxxx-||-4444444444444444-33333333-22222222-4444444444444444-33333333-66666666-||-2222222222222222-11111111-00000000-2222222222222222-11111111----------| ................ ........ ........ ................ ........
|-----2-----2----------------|---------------------------------------||---2-----2------------------|---------------------------------------||-----------------------8888-|---------------------------------------||-4-----4-----5-----4---xxxx-|-4444-2222-77-55-44444444-2-5555-77-55-||-4-----4---------3-----6666-|-4444-2222-77-55-44444444-2-5555-77-55-||-2-----2-------3-----2------|-2222-0000-55-33-22222222-0-3333-55-33-|
|---------------------------------------||---------------------------------------||---------------------------------------||-4444-2222-77-55-44444444-2-5555-77-55-||-4444-2222-77-55-44444444-2-5555-77-55-||-2222-0000-55-33-22222222-0-3333-55-33-|
|---------------------------------------||---------------------------------------||---------------------------------------||-4444-2222-77-55-44444444-2-5555-77-55-||-4444-2222-77-55-44444444-2-5555-77-55-||-2222-0000-55-33-22222222-0-3333-55-33-|
|-----------------------------||-----------------------------||-----------------------------||-4444-2222-77-55-4-2-5-2-7-5-||-4444-2222-77-55-4-2-5-2-7-5-||-2222-0000-55-33-2-0-3-0-5-3-|
|-----------|-----------|-----------|-----------||-----------|-----------|-----------|-----------||-----------|-----------|-----------|-----------||-66/5-33/2-|-66/5-33/2-|-66/5-33/2-|-66/5-33/2-||-66/5-33/2-|-66/5-33/2-|-66/5-33/2-|-66/5-33/2-||-44/3-11/0-|-44/3-11/2-|-44/3-11/0-|-44/3-11/0-| .. . .. . .. . .. . .. . .. . .. . .. .
|-----------|-----------|-----------|-----------||-----------|-----------|-----------|-----------||-----------|-----------|-----------|-----------||-66/5-33/2-|-66/5-33/2-|-66/5-33/2-|-66/5-33/2-||-66/5-33/2-|-66/5-33/2-|-66/5-33/2-|-66/5-33/2-||-44/3-11/0-|-44/3-11/2-|-44/3-11/0-|-44/3-11/0-| .. . .. . .. . .. . .. . .. . .. . .. .
|-----------|-----------------|------|-------|---------------------||-----------|-----------------|------|-------|---------------------||-----------|-o-------------o-|------|-------|---------------------||-66/5-33/2-|---6/5-6/5-3/2---|------|-22222-|---------------------||-66/5-33/2-|-o-6/5-6/5-3/2-o-|------|-22222-|-222222-0-3333-55-33-||-44/3-11/0-|---4/3-4/3-1/0---|-(x7)-|-00000-|-222222-0-3333-55-33-| ..... ...... . .... .. ..
|---------------------|-------------------|---------------------------||---------------------|-------------------|---------------------------||---------------------|-------------------|---------------------------||---------------------|-------------------|---------------------------||-222222-0-3333-55-33-|-222222-0000-55-33-|---------------------------||-222222-0-3333-55-33-|-------------------|-2222-0000-3333-0000-55-33-| ...... . .... .. .. ...... .... .. .. .... .... .... .... .. ..
|---------------------------------------||---------------------------------------||---------------------------------------||-4444-2222-77-55-44444444-2-5555-77-55-||-4444-2222-77-55-44444444-2-5555-77-55-||-2222-0000-55-33-22222222-0-3333-55-33-|
|---------------------------------------||---------------------------------------||---------------------------------------||-4444-2222-77-55-44444444-2-5555-77-55-||-4444-2222-77-55-44444444-2-5555-77-55-||-2222-0000-55-33-22222222-0-3333-55-33-|
|---------------------------------------||---------------------------------------||---------------------------------------||-4444-2222-77-55-44444444-2-5555-77-55-||-4444-2222-77-55-44444444-2-5555-77-55-||-2222-0000-55-33-22222222-0-3333-55-33-|
|-----------------------------||-----------------------------||-----------------------------||-4444-2222-77-55-4-2-5-2-7-5-||-4444-2222-77-55-4-2-5-2-7-5-||-2222-0000-55-33-2-0-3-0-5-3-|
|-----------|------|-----------||-----------|------|-----------||-----------|------|-----------||-66/5-33/2-|------|-66/5-33/2-||-66/5-33/2-|------|-66/5-33/2-||-44/3-11/0-|-(x7)-|-44/3-11/0-| .. . .. .
this is the correct version of the best song on the planet AAF 4 EVER!!!! tuning:standard
Tap to rate this tab
 
# A B C D E F G H I J K L M N O P Q R S T U V W X Y Z