All That Remains – Forever In Your Hands Acoustic tab ver. 2

Title: Forever In Your Hands [Acoustic]
Artist: All That Remains

Transcribed by Colton Wood

Tuning: 1 1/2 step down (C#, F#, B, E, G#, C#)
Tempo = 174

Legend
x - dead note
h - hammer on/pull off
b - bend
/ - slide
~ - vibrato
g - ghost note
> - accentuated note
t - trill
M - palm mute
. - staccato
P - popping (bass)
S - slapping (bass)
+ - tapping
W - wide vibrato
< - fade in
w - whammy bar
= - tremolo picking
v - brush up
^ - brush down
V - pick stroke up
n - pick stroke down

Guitar 1 (left) is first, scroll down to view guitar 2 (right)


Guitar 1
-----------------------------------------------------


Intro

--------------0-----------------------0-------------|--------0h-1-----1--0-----------0h-1-----1--0-------|----------------------------------------------------|-----2-----------------2-----2-----------------2----|--0-----------------------0-------------------------|----------------------------------------------------|
--------------0--3--------------------0--3----------|-----------5-----------------------5----------------|--------2-----------2-----------2-----------2-------|-----3-----------------3-----3-----------------3----|--0-----------------------0-------------------------|----------------------------------------------------|
--------------0-----------------------0-------------|-----------5-----5-----------------5-----5----------|--------5-----------5-----------5-----------5-(5)/--|-----3-----------------3-----3-----------------3-/--|--0-----------------------0-------------------------|----------------------------------------------------|
--------------0-----------------------0-------------|-----------8-----8-----------------5----------------|-/7-----7-----------7--------------------4----------|-/5--5-----------------5--------6-------------------|--0--------------------------7----------------------|--------------------------0-------------------------|
Verse 1
--------------0-----------------------0-------------|--------0h-1-----1--0-----------0h-1-----1--0-------|----------------------------------------------------|-----2-----------------2-----2-----------------2----|--0-----------------------0-------------------------|----------------------------------------------------|
--------------0--3--------------------0--3----------|-----------5-----------------------5----------------|--------2-----------2-----------2-----------2-------|-----3-----------------3-----3-----------------3----|--0-----------------------0-------------------------|----------------------------------------------------|
--------------0-----------------------0-------------|-----------5-----5-----------------5-----5----------|--------5-----------5-----------5-----------5-(5)/--|-----3-----------------3-----3-----------------3-/--|--0-----------------------0-------------------------|----------------------------------------------------|
--------------0--------------------0----------------|-----------8-----8-----------------5--------5\------|-/7-----7-----------7--------------4--------4\------|-/5--5--------------------------6--------6----------|--0--------------------0-----7----------------------|--------------------------0-------------------------|
--0--0--0-----0-----0--0--0--0--0--0--0--0--0--0----|--1--1--1-----1-----1--1--1--1--1--1--1--1--1--1----|--2--2--2-----2-----2--2--2--2--2--2--2--2--2--2----|--2--2--2-----2-----2--2--2--2--2--2--2--2--2--2----|--0--0--0-----0-----0--0--0--0--0--0--0--0--0--0----|----------------------------------------------------|
--0--0--0-----0-----0--0--0--0--0--0--0--0--0--0----|--5--5--5-----5-----5--5--5--5--5--5--5--5--5--5----|--2--2--2-----2-----2--2--2--2--2--2--2--2--2--2----|--3--3--3-----3-----3--3--3--3--3--3--3--3--3--3----|--0--0--0-----0-----0--0--0--0--0--0--0--0--0--0----|----------------------------------------------------|
--0--0--0-----0-----0--0--0--0--0--0--0--0--0-------|--5--5--5-----5-----5--5--5--5--5--5--5--5--5s------|--5--5--5-----5-----5--5--5--5--5--5--5--5--5s------|--3--3--3-----3-----3--3--3--3--3--3--3--3--3s------|--0--0--0-----0-----0--0--0--0--0--0--0--0----------|----------------------------------------------------|
--0--0--0-----0--0--0--0--0--0--0--0--0--0--0--0----|--8--8--8-----8--8--8--0--0--0--0--0--0--0--0--0----|--7--7--7-----7--7--7--9--9--9--9--9--9--9--9--9----|--5--5--5-----5--5--5--6--6--6--6--6--6--6--6--6----|-----------------------7--7--7--7--7--7--7--7--7----|----------------------------------------------------|
Pre Chorus
-----------------------------------3/-7--8--7-------|--------0--------------5--------5--------------8----|-----------5--------5--------5----------------------|-----2-----------3--------3-------------------------|--0-------------------------------------------------|----------------------------------------------------|
Chorus
--------------------0-------------------------------|--8~----------------x-------------------------------|--------------------10----------------------x--x----|--------------------10----------------------x--x----|--------------8-----8-----------------------x--x----|----------------------------------------------------|
----------------------------------------------------|----------------------------------------------------|--------------12----------------------12------------|--------10-------10----10-------10-------10---------|-----14----14-------14-------14----14-------14------|--------------------------0-------------------------|
----------------------------------------------------|----------------------------------------------------|--12-------12-------12-------12-------12------------|-----10-------10-------10-------10-------10----10---|--------14-------14-------14-------14-------14------|----------------------------------------------------|
----------------------------------------------------|--10-------10-------10-------10-------10------------|-----12-------12-------12-------12-------12---------|--------10-------10-------10-------10-------10------|----------------------------------------------------|----------------------------------------------------|
----------------------------------------------------|----------------------------------------------------|--------------12----------------------12------------|(10)----10-------10----10-------10-------10---------|-----14----14-------14-------14----14-------14------|----------------------------------------------------|
----------------------------------------------------|----------------------------------------------------|--------------12----------------------12------------|--10----10-------10----10-------10-------10---------|-----14----14-------14-------14----14-------14------|----------------------------------------------------|
----------------------------------------------------|----------------------------------------------------|--12-------12-------12-------12-------12------------|-----10-------10-------10-------10-------10----10---|--------14-------14-------14-------14-------14------|----------------------------------------------------|
----------------------------------------------------|--10-------10-------10-------10-------10-------0----|-----12-------12-------12-------12-------12----0----|--------10-------10-------10-------10-------10------|----------------------------------------------------|----------------------------------------------------|
Interlude
----------------------------------------------------|--1-----x--1-----x--1-----x--1--0--0--0--0--0-------|--2-----x--2-----x--0-----x--2--0--0--0--0--0-------|--2-----x--3-----x--2-----x--2--x--x--0--0--0-------|--0-----x--3-----x--3-----x--0--x--x----------------|----------------------------------------------------|
-----------0-----------------1--------3--3--0--0----|--1-----x--0-----x--0-----x--1--x--x--3--3--3--3----|--2-----x--2-----x--0-----x--2--x--x--0--0--0--0----|--3-----x--2-----x--2-----x--3--x--x--0--0--0--0----|--3-----x--0-----x--2-----x-----x--x--2--2--2--2----|--------------------0-------------------------------|
----------------------------------------------------|--1-----x--1-----x--1-----x--0--x--0--0--0--0--0----|--2-----x--2-----x--0-----x--2--x--0--0--0--0--0----|--2-----x--3-----x--2-----x--2--x--x--0--0--0--0----|--0-----x--3-----x--3-----x--0--x--x----------------|----------------------------------------------------|
-----------0-----------------1--------3--3--0--0----|--1-----x--0-----x--0-----x--1--x--x--3--3--3--3----|--2-----x--2-----x--0-----x--2--x--x--0--0--0--0----|--3-----x--2-----x--2-----x--3--x--x--0--0--0--0----|--3-----x--0-----x--2-----x-----x--x--2--2--2--2----|--------------------0-------------------------------|
Verse 2
--------------0-----------------------0-------------|--------0h-1-----1--0-----------0h-1-----1--0-------|----------------------------------------------------|-----2-----------------2-----2-----------------2----|--0-----------------------0-------------------------|----------------------------------------------------|
--------------0--3--------------------0--3----------|-----------5-----------------------5----------------|--------2-----------2-----------2-----------2-------|-----3-----------------3-----3-----------------3----|--0-----------------------0-------------------------|----------------------------------------------------|
--------------0-----------------------0-------------|-----------5-----5-----------------5-----5----------|--------5-----------5-----------5-----------5-(5)/--|-----3-----------------3-----3-----------------3-/--|--0-----------------------0-------------------------|----------------------------------------------------|
--------------0--------------------0----------------|-----------8-----8-----------------5--------5\------|-/7-----7-----------7--------------4--------4\------|-/5--5--------------------------6--------6----------|--0--------------------0-----7----------------------|--------------------------0-------------------------|
--0--0--0-----0-----0--0--0--0--0--0--0--0--0--0----|--1--1--1-----1-----1--1--1--1--1--1--1--1--1--1----|--2--2--2-----2-----2--2--2--2--2--2--2--2--2--2----|--2--2--2-----2-----2--2--2--2--2--2--2--2--2--2----|--0--0--0-----0-----0--0--0--0--0--0--0--0--0--0----|----------------------------------------------------|
--0--0--0-----0-----0--0--0--0--0--0--0--0--0--0----|--5--5--5-----5-----5--5--5--5--5--5--5--5--5--5----|--2--2--2-----2-----2--2--2--2--2--2--2--2--2--2----|--3--3--3-----3-----3--3--3--3--3--3--3--3--3--3----|--0--0--0-----0-----0--0--0--0--0--0--0--0--0--0----|----------------------------------------------------|
--0--0--0-----0-----0--0--0--0--0--0--0--0--0-------|--5--5--5-----5-----5--5--5--5--5--5--5--5--5/------|--5--5--5-----5-----5--5--5--5--5--5--5--5--5/------|--3--3--3-----3-----3--3--3--3--3--3--3--3--3/------|--0--0--0-----0-----0--0--0--0--0--0--0--0----------|----------------------------------------------------|
--0--0--0-----0--0--0--0-----0--0--0--0--0--0--0----|--8--8--8-----8--8--8--0-----0--0--0--0--0--0--0----|--7--7--7-----7--7--7--9-----9--9--9--9--9--9--9----|--5--5--5-----5--5--5--6-----6--6--6--6--6--6--6----|-----------------------7-----7--7--7--7--7--7--7----|----------------------------------------------------|
Pre Chorus
-----------------------------------3/-7--8--7-------|--------0--------------5--------5--------------8----|-----------5--------5--------5----------------------|-----2-----------3--------3-------------------------|--0-------------------------------------------------|----------------------------------------------------|
Chorus
--------------------0-------------------------------|--8~----------------x-------------------------------|--------------------10----------------------x--x----|--------------------10----------------------x--x----|--------------8-----8-----------------------x--x----|----------------------------------------------------|
----------------------------------------------------|----------------------------------------------------|--------------12----------------------12------------|--------10-------10----10-------10-------10---------|-----14----14-------14-------14----14-------14------|--------------------------0-------------------------|
----------------------------------------------------|----------------------------------------------------|--12-------12-------12-------12-------12------------|-----10-------10-------10-------10-------10----10---|--------14-------14-------14-------14-------14------|----------------------------------------------------|
----------------------------------------------------|--10-------10-------10-------10-------10------------|-----12-------12-------12-------12-------12---------|--------10-------10-------10-------10-------10------|----------------------------------------------------|----------------------------------------------------|
----------------------------------------------------|----------------------------------------------------|--------------12----------------------12------------|(10)----10-------10----10-------10-------10---------|-----14----14-------14-------14----14-------14------|----------------------------------------------------|
----------------------------------------------------|----------------------------------------------------|--------------12----------------------12------------|--10----10-------10----10-------10-------10---------|-----14----14-------14-------14----14-------14------|----------------------------------------------------|
----------------------------------------------------|----------------------------------------------------|--12-------12-------12-------12-------12------------|-----10-------10-------10-------10-------10----10---|--------14-------14-------14-------14-------14------|----------------------------------------------------|
----------------------------------------------------|--10-------10-------10-------10-------10-----0--0---|-----12-------12-------12-------12-------12--0--0---|--------10-------10-------10-------10--------0--0---|----------------------------------------------------|----------------------------------------------------|
Interlude
----------------------------------------------------|--1-----x--1-----x--1-----x--1--0--0--0--0--0-------|--2-----x--2-----x--0-----x--2--0--0--0--0--0-------|--2-----x--3-----x--2-----x--2--x--x--0--0--0-------|--0-----x--3-----x--3-----x--0--x--x----------------|----------------------------------------------------|
-----------0-----------------1--------3--3--0--0----|--1-----x--0-----x--0-----x--1--x--x--3--3--3--3----|--2-----x--2-----x--0-----x--2--x--x--0--0--0--0----|--3-----x--2-----x--2-----x--3--x--x--0--0--0--0----|--3-----x--0-----x--2-----x-----x--x--2--2--2--2----|--------------------0-------------------------------|
----------------------------------------------------|--1-----x--1-----x--1-----x--0--x--0--0--0--0--0----|--2-----x--2-----x--0-----x--2--x--0--0--0--0--0----|--2-----x--3-----x--2-----x--2--x--x--0--0--0--0----|--0-----x--3-----x--3-----x--0--x--x----------------|----------------------------------------------------|
-----------0-----------------1--------3--3--0-------|--1-----x--0-----x--0-----x--1--x--x--3--3--3-------|--2-----x--2-----x--0-----x--2--x--x--0--0--0-------|--3-----x--2-----x--2-----x--3--x--x--0--0--0-------|--3-----x--0-----x--2-----x-----x--x--2--2--2-------|--------------------0-------------------------------|
Guitar Solo
--0--------------0-----0-----------0-----0-----0----|--5--------------1/-3--5-----3\-1--3-----1--0--1----|----------------------------------------------------|----------------------------------------------------|----------------------------------------------------|----------------------------------------------------|
--0--------0--0-----------0--0----------------------|--1--0--------0-----x--x--1--0----------------------|--------2-----------x--x--------2--0----------------|--------------------------------2--0----------------|----------------------------------------------------|----------------------------------------------------|
--------------------8--7-----12\10------------------|--------10-8----------------------------------------|--9/-------------9/---------------------------------|----------------------------------------------------|----------------------------------------------------|----------------------------------------------------|
--19----------19\15----15-x--12-x--10---------------|--------------------------x--10-x--x----------------|--16----------16\12----12-x--x--x--12-------x--x----|-----------------------------10-x--9--------x--x----|----------------------------------------------------|----------------------------------------------------|
--0-----0-----x-----0-----------0-------------------|--13----13----x-----15----------15------------------|--16----16----x-----12----------12h14---------------|--------------------------------------------9/------|----------------------------------------------------|----------------------------------------------------|
----------------------------------------------------|--------8---------------0------------10/---------12-|-------------------------------------12/---------14-|--10----------10/12------------------12/---------14-|----------------------------------------------------|----------------------------------------------------|
-----------------------|-----------0----------------|---------13------------|--------x--x--13h12----15---|---------14------------|--------x--x--------12-12---|---------14------------|--------x--x----------------|-----------------------|----------------------------|-----------------------|----------------------------|
----------------------------|--x--17-x--15---------------|--x--14-x--12-------x--x----|--x-----x--12---------------|----------------------------|----------------------------|
--17------------------------------------------------------------------------|--13----------17.---------------------13----------------------12------------|--------------------------------------14----------------------12h---14------|----------------------------------------------------------------------------|----------------------------------------------------------------------------|----------------------------------------------------------------------------|
-----------------------|--------------------------------------x-------------|------12/13------------|--------12----------------------------x-------------|------12/14------------|--------12----------12/14\12----------x-------------|-----------------------|--------------------12/14\12----------x-------------|-----------------------|--------------------------------------x-------------|-----------------------|--------------------------------------x-------------|
-----0-----------0-----------x-----------0-------------------0-----------x--|-----0-----------0-----------x-----------0-------------------0-----------x--|--4/-5-----------4-----------x-----------4-------------------4-----------x--|----------------------------------------------------------------------------|----------------------------------------------------------------------------|----------------------------------------------------------------------------|
-----------------------|-----12----12/15------------|-----------------------|----------------------------|---------10------------|-----------9-/12------------|-----------------------|----------------------------|-----------------------|----------------------------|-----------------------|----------------------------|
Interlude
C#|----------------------------------------------------|G#|-----------5-----------8--------10-12----13-12------|E |--------7-----------5--------9-----------------12---|B |-----5-----------7--------------------9-------------|F#|--0-----------0-----------0-------------------------|C#|----------------------------------------------------|
----------------------------------------------------|--------------------------------8/-10-8-------------|-----------------------7--9--10----------10-9-------|--------------------10------------------------------|----------------------------------------------------|----------------------------------------------------|
----------------------------------------------------|-----------5-----------8--------10-12----13-12-10---|--------7-----------5--------9----------------------|-----5-----------7--------------------9-------------|--0-----------0-----------0-------------------------|----------------------------------------------------|
-----------------10/12-10----------12----10---------|-----------------------------8--10----------13-12---|--------------------------------------10------------|----------------------------------------------------|----------------------------------------------------|----------------------------------------------------|
Chorus
-----------------|-10~-------------|-----------------|-----------------|-----------------|-----------------|
----------------------------------------------------|----------------------------------------------------|--------------12----------------------12------------|--------10-------10----10L10----10-------10---------|-----14----14-------14-------14----14-------14------|--------------------------0-------------------------|
----------------------------------------------------|----------------------------------------------------|--12-------12-------12-------12-------12------------|-----10-------10-------10-------10-------10----10---|--------14-------14-------14-------14-------14------|----------------------------------------------------|
----------------------------------------------------|--10-------10-------10-------10-------10------------|-----12-------12-------12-------12-------12---------|--------10-------10-------10-------10-------10L-----|----------------------------------------------------|----------------------------------------------------|
----------------------------------------------------|----------------------------------------------------|--------------12----------------------12------------|--10----10-------10----10L10----10-------10----10L--|-----14----14-------14-------14----14-------14------|----------------------------------------------------|
----------------------------------------------------|----------------------------------------------------|--------------12----------------------12------------|--10----10-------10----10L10----10-------10----10---|-----14----14-------14-------14----14-------14------|----------------------------------------------------|
----------------------------------------------------|----------------------------------------------------|--12-------12-------12-------12-------12------------|-----10-------10-------10-------10-------10----10---|--------14-------14-------14-------14-------14------|----------------------------------------------------|
----------------------------------------------------|--10-------10-------10-------10-------10------------|-----12-------12-------12-------12-------12---------|--------10-------10-------10-------10-------10------|----------------------------------------------------|----------------------------------------------------|
Outro
--0--0--0-----0--0--0--0--0--0-----0--0--0--0--0----|--1--1--1-----1--1--1--1--1--1-----1--1--1--1--1----|--2--2--2-----2--2--2--2--2--2-----2--2--2--2--2----|--2--2--2-----2--2--2--2--2--2-----2--2--2--2--2----|--0--0--0-----0--0--0--0--0--0-----0--0--0--0--0----|----------------------------------------------------|
--0--0--0-----0--0--0--0--0--0-----0--0--0--0--0----|--5--5--5-----5--5--5--5--5--5-----5--5--5--5--5----|--2--2--2-----2--2--2--2--2--2-----2--2--2--2--2----|--3--3--3-----3--3--3--3--3--3-----3--3--3--3--3----|--0--0--0-----0--0--0--0--0--0-----0--0--0--0--0----|----------------------------------------------------|
--0--0--0-----0--0--0--0--0--0-----0--0--0--0--0----|--5--5--5-----5--5--5--5--5--5-----5--5--5--5--5----|--5--5--5-----5--5--5--5--5--5-----5--5--5--5--5----|--3--3--3-----3--3--3--3--3--3-----3--3--3--3--3----|--0--0--0-----0--0--0--0--0--0-----0--0--0--0--0----|----------------------------------------------------|
--0--0--0-----0--0--0--0--0--0-----0--0--0--0--0----|--8--8--8-----8--8--8--0--0--0-----0--0--0--0--0----|--7--7--7-----7--7--7--4--4--4-----4--4--4--4--4----|--5--5--5-----5--5--5--6--6--6-----6--6--6--6--6----|-----------------------7--7--7-----7--7--7--7--7----|-----------------------0--0--0-----0--0--0--0--0----|
--0--0--0-----0--0--0--0--0--0-----0--0--0--0--0----|--1--1--1-----1--1--1--1--1--1-----1--1--1--1--1----|--2--2--2-----2--2--2--2--2--2-----2--2--2--2--2----|--2--2--2-----2--2--2--2--2--2-----2--2--2--2--2----|--0--0--0-----0--0--0--0--0--0-----0--0--0--0--0----|----------------------------------------------------|
--0--0--0-----0--0--0--0--0--0-----0--0--0--0--0----|--5--5--5-----5--5--5--5--5--5-----5--5--5--5--5----|--2--2--2-----2--2--2--2--2--2-----2--2--2--2--2----|--3--3--3-----3--3--3--3--3--3-----3--3--3--3--3----|--0--0--0-----0--0--0--0--0--0-----0--0--0--0--0----|----------------------------------------------------|
--0--0--0-----0--0--0--0--0--0-----0--0--0--0--0----|--5--5--5-----5--5--5--5--5--5-----5--5--5--5--5----|--5--5--5-----5--5--5--5--5--5-----5--5--5--5--5----|--3--3--3-----3--3--3--3--3--3-----3--3--3--3--3----|--0--0--0-----0--0--0--0--0--0-----0--0--0--0--0----|----------------------------------------------------|
--------------------0--0--0.------------------------|--8--8--8-----------0--0--0.------------------------|--7--7--7-----------4--4--4.------------------------|--5--5--5-----------6--6--6.------------------------|--------------------7--7--7.------------------------|--------------------0--0--0.------------------------|
END GUITAR 1 Guitar 2 ----------------------------------------------------- Intro
--------------0-----------------------0-------------|-----------10----10----------------10----10---------|--------9-----------9-----------9-----------9-------|-----7-----------------------7----------------------|--0--------------------0--0--------------------0----|----------------------------------------------------|
--------------0-----------------------0-------------|-----------8-----8-----------------8-----8----------|--------10----------10----------10----------10------|-----7-----------------------7----------------------|--0--------------------0--0--------------------0----|----------------------------------------------------|
--------------0-----------------------0-------------|-----------10----10----------------10----10---------|--------9-----------9-----------9-----------9-------|-----7-----------------------7----------------------|--0--------------------0--0--------------------7----|----------------------------------------------------|
--------------0-----------------------0-------------|-----------0-----0-----------------0-----0----------|--------9-----------9-----------9-----------9-------|-----9-----------------9-----9-----------------9----|--7-----------------------7-------------------------|----------------------------------------------------|
Verse 1
--------------0-----------------------0-------------|-----------10----10----------------10----10---------|--------9-----------9-----------9-----------9-------|-----7-----------------------7----------------------|--0--------------------0--0--------------------0----|----------------------------------------------------|
--------------0-----------------------0-------------|-----------8-----8-----------------8-----8----------|--------10----------10----------10----------10------|-----7-----------------------7----------------------|--0--------------------0--0--------------------0----|----------------------------------------------------|
--------------0-----------------------0-------------|-----------10----10----------------10----10---------|--------9-----------9-----------9-----------9-------|-----7-----------------------7----------------------|--0--------------------0--0--------------------7----|----------------------------------------------------|
--------------0--------------------0-----0--0--0----|-----------0-----0-----------------0-----0--0--0----|--------9-----------9-----------9--------9--9--9----|-----9-----------------9-----9-----------9--9--9----|--7-----------------------7--------------7--7--7----|----------------------------------------------------|
--0--0--0-----0-----0--0--0--0--0--0--0--0--0--0----|--10-10-10----10----10-10-10-10-10-10-10-10-10-10---|--9--9--9-----9-----9--9--9--9--9--9--9--9--9--9----|--7--7--7-----7-----7--7--7--7--7--7--7--7--7--7----|--0--0--0-----0-----0--0--0--0--0--0--0--0--0--0----|----------------------------------------------------|
--0--0--0-----0-----0--0--0--0--0--0--0--0--0--0----|--8--8--8-----8-----8--8--8--8--8--8--8--8--8--8----|--10-10-10----10----10-10-10-10-10-10-10-10-10-10---|--7--7--7-----7-----7--7--7--7--7--7--7--7--7--7----|--0--0--0-----0-----0--0--0--0--0--0--0--0--0--0----|----------------------------------------------------|
--0--0--0-----0-----0--0--0--0--0--0--0--0--0--0----|--10-10-10----10----10-10-10-10-10-10-10-10-10-10---|--9--9--9-----9-----9--9--9--9--9--9--9--9--9--9----|--7--7--7-----7-----7--7--7--7--7--7--7--7--7--7----|--0--0--0-----0-----0--0--0--0--0--0--0--0--0--0----|----------------------------------------------------|
--0--0--0-----0--0--0--0--0--0--0--0--0--0--0--0----|--0--0--0-----0--0--0--0--0--0--0--0--0--0--0--0----|--9--9--9-----9--9--9--9--9--9--9--9--9--9--9--9----|--9--9--9-----9--9--9--9--9--9--9--9--9--9--9--9----|--7--7--7-----7--7--7--7--7--7--7--7--7--7--7--7----|--0--0--0-----0--0--0--0--0--0--0--0--0--0--0--0----|
Pre Chorus
--0.------------------------|--0.------------------------|--9.------------------------|--9.------------------------|--7.------------------------|--0.------------------------|
Chorus
--1-----------x-----1-----1-------------------------|--1-----------x-----1-----1-------------------------|--2-----------x-----2-----2-----------2-------------|--3-----------x-----3-----3-----------3-----x--x----|--3-----------x-----3-----3-----------3-----x--x----|--1-----------x-----1-----1-----------1-----x--x----|
--------------x-----0-----0-----------0-------------|--------------x-----0-----0-----------0-------------|--0-----------x-----0-----0-----------0-------------|--2-----------x-----2-----2-----------2-----x--x----|--2-----------x-----2-----2-----------2-----x--x----|--0-----------x-----0-----0-----------0-----x--x----|
--------------x-----3-----3-------------------------|--3-----------x-----3-----3-------------------------|--0-----------x-----0-----0-----------------0--0----|--0-----------x-----0-----0-----------0-----0--0----|--2-----------x-----2-----2-----2-----2-----2--2----|--------------x-----x-----x-------------------------|
--0-----------x-----0-----0-----------0-------------|--1-----------x-----1-----1-----------1-------------|--2-----------x-----2-----2-----------2-------------|--2-----------x-----2-----2-----2-----2-----x--x----|--0-----------x-----0-----0-----0-----0-----x--x----|--------------x-----------------------------x--x----|
--1-----------x-----1-----1-------------------------|--1-----------x-----1-----1-------------------------|--2-----------x-----2-----2-----------2-------------|--3-----------x-----3-----3-----------3-----x--x----|--3-----------x-----3-----3-----------3-----x--x----|--1-----------x-----1-----1-----------1-----x--x----|
--0-----------x-----0-----0--0--------0-------------|--0-----------x-----0-----0--0--------0-------------|--0-----------x-----0-----0-----0-----0-------------|--2-----------x-----2-----2-----2-----2-----x--x----|--2-----------x-----2-----2-----2-----2-----x--x----|--0-----------x-----0-----0-----0-----0-----x--x----|
--3--3--3--3--3--3--3--3--3--3--3--3--3--3--3--3----|--3--3--3--3--3--3--3--3--3--3--3--3--3--3--3--3----|--4--4--4--4--4--4--4--4--4--4--4--4--4--4--4--4----|--5--5--5--5--5--5--5--5--5--5--5--5--5--5--5--5----|----------------------------------------------------|----------------------------------------------------|
--3--3--3--3--3--3--3--3--3--3--3--3--3--3--3--3----|--3--3--3--3--3--3--3--3--3--3--3--3--3--3--3--3----|--4--4--4--4--4--4--4--4--4--4--4--4--4--4--4--4----|--5--5--5--5--5--5--5--5--5--5--5--5--5--5--5--5----|----------------------------------------------------|----------------------------------------------------|
Interlude
-----------------------------------3-----5----------|-----------------------5--------5-----------8-------|--------4h-5--------5--------5----(5)/7--------7----|-/7--2-----------3--------3-------(3)/5-------------|--0-----------0-------------------------------------|----------------------------------------------------|
--------------8h-7-----------------8-----7-----0----|--------10----------10----------10----------10------|-----------9-----------9----------------------------|-----------------------------7--------10------------|--0--0--------------------0-------------------------|----------------------------------------------------|
-----------------------------------3-----5----------|-----------------------5--------5-----------8-------|--------4h-5--------5--------5----(5)/7--------7----|-----2-----------3--------3-------(3)/5-------------|--0-----------0-------------------------------------|----------------------------------------------------|
--------------8h-7-----------------8-----7-----0----|--------10----------10----------10----------10------|-----------9-----------9----------------------------|-----------------------------7--------10------------|--0--0--------------------0-------------------------|----------------------------------------------------|
Verse 2
--------------0-----------------------0-------------|-----------10----10----------------10----10---------|--------9-----------9-----------9-----------9-------|-----7-----------------------7----------------------|--0--------------------0--0--------------------0----|----------------------------------------------------|
--------------0-----------------------0-------------|-----------8-----8-----------------8-----8----------|--------10----------10----------10----------10------|-----7-----------------------7----------------------|--0--------------------0--0--------------------0----|----------------------------------------------------|
--------------0-----------------------0-------------|-----------10----10----------------10----10---------|--------9-----------9-----------9-----------9-------|-----7-----------------------7----------------------|--0--------------------0--0--------------------7----|----------------------------------------------------|
--------------0--------------------0-----0--0--0----|-----------0-----0-----------------0-----0--0--0----|--------9-----------9-----------9--------9--9--9----|-----9-----------------9-----9-----------9--9--9----|--7-----------------------7--------------7--7--7----|----------------------------------------------------|
--0--0--0-----0-----0--0--0--0--0--0--0--0--0--0----|--10-10-10----10----10-10-10-10-10-10-10-10-10-10---|--9--9--9-----9-----9--9--9--9--9--9--9--9--9--9----|--7--7--7-----7-----7--7--7--7--7--7--7--7--7--7----|--0--0--0-----0-----0--0--0--0--0--0--0--0--0--0----|----------------------------------------------------|
--0--0--0-----0-----0--0--0--0--0--0--0--0--0--0----|--8--8--8-----8-----8--8--8--8--8--8--8--8--8--8----|--10-10-10----10----10-10-10-10-10-10-10-10-10-10---|--7--7--7-----7-----7--7--7--7--7--7--7--7--7--7----|--0--0--0-----0-----0--0--0--0--0--0--0--0--0--0----|----------------------------------------------------|
--0--0--0-----0-----0--0--0--0--0--0--0--0--0--0----|--10-10-10----10----10-10-10-10-10-10-10-10-10-10---|--9--9--9-----9-----9--9--9--9--9--9--9--9--9--9----|--7--7--7-----7-----7--7--7--7--7--7--7--7--7--7----|--0--0--0-----0-----0--0--0--0--0--0--0--0--0--0----|----------------------------------------------------|
--0--0--0-----0--0--0--0L-0--0--0--0--0--0--0--0----|--0--0--0-----0--0--0--0L-0--0--0--0--0--0--0--0----|--9--9--9-----9--9--9--9L-9--9--9--9--9--9--9--9----|--9--9--9-----9--9--9--9L-9--9--9--9--9--9--9--9----|--7--7--7-----7--7--7--7L-7--7--7--7--7--7--7--7----|--0--0--0-----0--0--0--0L-0--0--0--0--0--0--0--0----|
Pre Chorus
--0.------------------------|--0.------------------------|--9.------------------------|--9.------------------------|--7.------------------------|--0.------------------------|
Chorus
--1-----------x-----1-----1-------------------------|--1-----------x-----1-----1-------------------------|--2-----------x-----2-----2-----------2-------------|--3-----------x-----3-----3-----------3-----x--x----|--3-----------x-----3-----3-----------3-----x--x----|--1-----------x-----1-----1-----------1-----x--x----|
--------------x-----0-----0-----------0-------------|--------------x-----0-----0-----------0-------------|--0-----------x-----0-----0-----------0-------------|--2-----------x-----2-----2-----------2-----x--x----|--2-----------x-----2-----2-----------2-----x--x----|--0-----------x-----0-----0-----------0-----x--x----|
--------------x-----3-----3-------------------------|--3-----------x-----3-----3-------------------------|--0-----------x-----0-----0-----------------0--0----|--0-----------x-----0-----0-----------0-----0--0----|--2-----------x-----2-----2-----2-----2-----2--2----|--------------x-----x-----x-------------------------|
--0-----------x-----0-----0-----------0-------------|--1-----------x-----1-----1-----------1-------------|--2-----------x-----2-----2-----------2-------------|--2-----------x-----2-----2-----2-----2-----x--x----|--0-----------x-----0-----0-----0-----0-----x--x----|--------------x-----------------------------x--x----|
--1-----------x-----1-----1-------------------------|--1-----------x-----1-----1-------------------------|--2-----------x-----2-----2-----------2-------------|--3-----------x-----3-----3-----------3-----x--x----|--3-----------x-----3-----3-----------3-----x--x----|--1-----------x-----1-----1-----------1-----x--x----|
--0-----------x-----0-----0--0--------0-------------|--0-----------x-----0-----0--0--------0-------------|--0-----------x-----0-----0-----0-----0-------------|--2-----------x-----2-----2-----2-----2-----x--x----|--2-----------x-----2-----2-----2-----2-----x--x----|--0-----------x-----0-----0-----0-----0-----x--x----|
--3--3--3--3--3--3--3--3--3--3--3--3--3--3--3--3----|--3--3--3--3--3--3--3--3--3--3--3--3--3--3--3--3----|--4--4--4--4--4--4--4--4--4--4--4--4--4--4--4--4----|--5--5--5--5--5--5--5--5--5--5--5--5--5--5--5--5----|----------------------------------------------------|----------------------------------------------------|
--3--3--3--3--3--3--3--3--3--3--3--3--3--3--3-------|--3--3--3--3--3--3--3--3--3--3--3--3--3--3--3-------|--4--4--4--4--4--4--4--4--4--4--4--4--4--4--4-------|--5--5--5--5--5--5--5--5--5--5--5--5--5--5--5--5/---|----------------------------------------------------|----------------------------------------------------|
Interlude
----------------------------------------------------|--1-----x--1-----x--1-----x--1--0--0--0--0--0-------|--2-----x--2-----x--0-----x--2--0--0--0--0--0-------|--2-----x--3-----x--2-----x--2--x--x--0--0--0-------|--0-----x--3-----x--3-----x--0--x--x----------------|----------------------------------------------------|
-----------0-----------------1--------3--3--0--0----|--1-----x--0-----x--0-----x--1--x--x--3--3--3--3----|--2-----x--2-----x--0-----x--2--x--x--0--0--0--0----|--3-----x--2-----x--2-----x--3--x--x--0--0--0--0----|--3-----x--0-----x--2-----x-----x--x--2--2--2--2----|--------------------0-------------------------------|
----------------------------------------------------|--1-----x--1-----x--1-----x--0--x--0--0--0--0--0----|--2-----x--2-----x--0-----x--2--x--0--0--0--0--0----|--2-----x--3-----x--2-----x--2--x--x--0--0--0--0----|--0-----x--3-----x--3-----x--0--x--x----------------|----------------------------------------------------|
-----------0-----------------1--------3--3--0-------|--1-----x--0-----x--0-----x--1--x--x--3--3--3-------|--2-----x--2-----x--0-----x--2--x--x--0--0--0-------|--3-----x--2-----x--2-----x--3--x--x--0--0--0-------|--3-----x--0-----x--2-----x-----x--x--2--2--2-------|--------------------0-------------------------------|
Guitar Solo
----------------------------------------------------|--1-----x--1-----x--1-----x--1--x--x--3--3--0-------|--2-----x--2-----x--0-----x--2--x--x--0--0--0-------|--2-----x--3-----x--2-----x--2--x--x--0--0--0-------|--0-----x--3-----x--3-----x--0--x--x--2--2----------|----------------------------------------------------|
-----------0-----------------1--------3--3--0-------|--1-----x--0-----x--0-----x--1--x--x--3--3--3-------|--2-----x--2-----x--0-----x--2--x--x--0--0--0-------|--3-----x--2-----x--2-----x--3--x--x--0--0--0-------|--3-----x--0-----x--2-----x-----x--x--2--2--2-------|--------------------0-------------------------------|
----------------------------------------------------|--1-----x--1-----x--1-----x--1--x--x--3--3--0-------|--2-----x--2-----x--0-----x--2--x--x--0--0--0-------|--2-----x--3-----x--2-----x--2--x--x--0--0--0-------|--0-----x--3-----x--3-----x--0--x--x--2--2----------|----------------------------------------------------|
-----------0-----------------1--------3--3--0-------|--1-----x--0-----x--0-----x--1--x--x--3--3--3-------|--2-----x--2-----x--0-----x--2--x--x--0--0--0-------|--3-----x--2-----x--2-----x--3--x--x--0--0--0-------|--3-----x--0-----x--2-----x-----x--x--2--2--2-------|--------------------0-------------------------------|
----------------------------------------------------|--1-----x--1-----x--1-----x--1--x--x--3--3--0-------|--2-----x--2-----x--0-----x--2--x--x--0--0--0-------|--2-----x--3-----x--2-----x--2--x--x--0--0--0-------|--0-----x--3-----x--3-----x--0--x--x--2--2----------|----------------------------------------------------|
-----------0-----------------1--------3--3--0-------|--1-----x--0-----x--0-----x--1--x--x--3--3--3-------|--2-----x--2-----x--0-----x--2--x--x--0--0--0-------|--3-----x--2-----x--2-----x--3--x--x--0--0--0-------|--3-----x--0-----x--2-----x-----x--x--2--2--2-------|--------------------0-------------------------------|
----------------------------------------------------|--1-----x--1-----x--1-----x--1--x--x--3--3--0-------|--2-----x--2-----x--0-----x--2--x--x--0--0--0-------|--2-----x--3-----x--2-----x--2--x--x--0--0--0-------|--0-----x--3-----x--3-----x--0--x--x--2--2----------|----------------------------------------------------|
-----------0-----------------1--------3--3--0-------|--1-----x--0-----x--0-----x--1--x--x--3--3--3-------|--2-----x--2-----x--0-----x--2--x--x--0--0--0-------|--3-----x--2-----x--2-----x--3--x--x--0--0--0-------|--3-----x--0-----x--2-----x-----x--x--2--2--2-------|--------------------0-------------------------------|
Interlude
-----------------------------------3-----5----------|-----------------------5--------5-----------8-------|--------4h-5--------5--------5----(5)/7--------7----|-----2-----------3--------3-------(3)/5-------------|--0-----------0-------------------------------------|----------------------------------------------------|
--------------8h-7-----------------8-----7-----0----|--------10----------10----------10----------10------|-----------9-----------9----------------------------|-----------------------------7--------10------------|--0--0--------------------0-------------------------|----------------------------------------------------|
-----------------------------------3-----5----------|-----------------------5--------5-----------8-------|--------4h-5--------5--------5----(5)/7--------7----|-----2-----------3--------3-------(3)/5-------------|--0-----------0-------------------------------------|----------------------------------------------------|
--------------8h-7-----------------8-----7-----0----|--------10----------10----------10----------10------|-----------9-----------9----------------------------|-----------------------------7--------10------------|--0--0--------------------0-------------------------|----------------------------------------------------|
Chorus
--1-----------x-----1-----1-------------------------|--1-----------x-----1-----1-------------------------|--2-----------x-----2-----2-----------2-------------|--3-----------x-----3-----3-----------3-----x--x----|--3-----------x-----3-----3-----------3-----x--x----|--1-----------x-----1-----1-----------1-----x--x----|
--------------x-----0-----0-----------0-------------|--------------x-----0-----0-----------0-------------|--0-----------x-----0-----0-----------0-------------|--2-----------x-----2-----2-----------2-----x--x----|--2-----------x-----2-----2-----------2-----x--x----|--0-----------x-----0-----0-----------0-----x--x----|
--------------x-----3-----3-------------------------|--3-----------x-----3-----3-------------------------|--0-----------x-----0-----0-----------------0--0----|--0-----------x-----0-----0-----------0-----0--0----|--2-----------x-----2-----2-----2-----2-----2--2----|--------------x-----x-----x-------------------------|
--0-----------x-----0-----0-----------0-------------|--1-----------x-----1-----1-----------1-------------|--2-----------x-----2-----2-----------2-------------|--2-----------x-----2-----2-----2-----2-----x--x----|--0-----------x-----0-----0-----0-----0-----x--x----|--------------x-----------------------------x--x----|
--1-----------x-----1-----1-------------------------|--1-----------x-----1-----1-------------------------|--2-----------x-----2-----2-----------2-------------|--3-----------x-----3-----3-----------3-----x--x----|--3-----------x-----3-----3-----------3-----x--x----|--1-----------x-----1-----1-----------1-----x--x----|
--0-----------x-----0-----0--0--------0-------------|--0-----------x-----0-----0--0--------0-------------|--0-----------x-----0-----0-----0-----0-------------|--2-----------x-----2-----2-----2-----2-----x--x----|--2-----------x-----2-----2-----2-----2-----x--x----|--0-----------x-----0-----0-----0-----0-----x--x----|
--3--3--3--3--3--3--3--3--3--3--3--3--3--3--3--3----|--3--3--3--3--3--3--3--3--3--3--3--3--3--3--3--3----|--4--4--4--4--4--4--4--4--4--4--4--4--4--4--4--4----|--5--5--5--5--5--5--5--5--5--5--5--5--5--5--5--5----|----------------------------------------------------|----------------------------------------------------|
--3--3--3--3--3--3--3--3--3--3--3--3--3--3--3--3----|--3--3--3--3--3--3--3--3--3--3--3--3--3--3--3--3----|--4--4--4--4--4--4--4--4--4--4--4--4--4--4--4--4----|--5--5--5--5--5--5--5--5--5--5--5--5--5--5--5--5----|----------------------------------------------------|----------------------------------------------------|
Outro
----------------------------------------------------|----------------------------------------------------|--9--9--9-----9--9--9--9--9--9-----9--9--9--9--9----|--7--7--7-----7--7--7--7--7--7-----7--7--7--7--7----|--0--0--0-----0--0--0--0--0--0-----0--0--0--0--0----|----------------------------------------------------|
----------------------------------------------------|--8--8--8-----8--8--8--8--8--8-----8--8--8--8--8----|--10-10-10----10-10-10-10-10-10----10-10-10-10-10---|--7--7--7-----7--7--7--7--7--7-----7--7--7--7--7----|--0--0--0-----0--0--0--0--0--0-----0--0--0--0--0----|----------------------------------------------------|
----------------------------------------------------|--10-10-10----10-10-10-10-10-10----10-10-10-10-10---|--9--9--9-----9--9--9--9--9--9-----9--9--9--9--9----|--7--7--7-----7--7--7--7--7--7-----7--7--7--7--7----|--0--0--0-----0--0--0--0--0--0-----0--0--0--0--0----|----------------------------------------------------|
----------------------------------------------------|----------------------------------------------------|----------------------------------------------------|--9--9--9-----9--9--9--9--9--9-----9--9--9--9--9----|--7--7--7-----7--7--7--7--7--7-----7--7--7--7--7----|--0--0--0-----0--0--0--0--0--0-----0--0--0--0--0----|
----------------------------------------------------|----------------------------------------------------|--9--9--9-----9--9--9--9--9--9-----9--9--9--9--9----|--7--7--7-----7--7--7--7--7--7-----7--7--7--7--7----|--0--0--0-----0--0--0--0--0--0-----0--0--0--0--0----|----------------------------------------------------|
----------------------------------------------------|--8--8--8-----8--8--8--8--8--8-----8--8--8--8--8----|--10-10-10----10-10-10-10-10-10----10-10-10-10-10---|--7--7--7-----7--7--7--7--7--7-----7--7--7--7--7----|--0--0--0-----0--0--0--0--0--0-----0--0--0--0--0----|----------------------------------------------------|
----------------------------------------------------|--10-10-10----10-10-10-10-10-10----10-10-10-10-10---|--9--9--9-----9--9--9--9--9--9-----9--9--9--9--9----|--7--7--7-----7--7--7--7--7--7-----7--7--7--7--7----|--0--0--0-----0--0--0--0--0--0-----0--0--0--0--0----|----------------------------------------------------|
----------------------------------------------------|----------------------------------------------------|----------------------------------------------------|--9--9--9-----------6--6--6.------------------------|--7--7--7-----------7--7--7.------------------------|--0--0--0-----------0--0--0.------------------------|
There ya go. The acoustic version of this great song! Good luck, my friends!
Please rate this tab:
x1.0