All That Remains - Air That I Breathe tab

THE AIR THAT I BREATHE
				                Words and Music by Phil Labonte, Oli Herbert, Mike Martin
						                     Jeanne Sagan and Shannon Lucas
Standard D tuning (D-G-C-F-A-D)

Fast Metal = 186 bpm

Intro (gtr. I) (always play at this rate)

-------------------------------------------------------------------------------------------|-------------------------------------------------------------------------------------------|-------------------------------------------------------------------------------------------|-14-11-11-11-11-11-14-11-11-11-11-11-14-11-11-14-11-11-14-11-11-11-11-11-14-11-11-11-11-11-|-------------------------------------------------------------------------------------------|-------------------------------------------------------------------------------------------|
----------------------------------------------------------------------------------------------|----------------------------------------------------------------------------------------------|----------------------------------------------------------------------------------------------|----------------------------------------------------------------------------------------------|-14-11-11-11-11-11-14-11-11-11-11-11-14-11-11-16-12-12-16-12-12-12-12-12-16-12-12-12-12-12-12-|----------------------------------------------------------------------------------------------|
-------------------------------------------------------------------------------------------|-------------------------------------------------------------------------------------------|-------------------------------------------------------------------------------------------|-14-11-11-11-11-11-14-11-11-11-11-11-14-11-11-14-11-11-14-11-11-11-11-11-14-11-11-11-11-11-|-------------------------------------------------------------------------------------------|-------------------------------------------------------------------------------------------|
----------------------------------------------------------------------------------------------|----------------------------------------------------------------------------------------------|----------------------------------------------------------------------------------------------|----------------------------------------------------------------------------------------------|-14-11-11-11-11-11-14-11-11-11-11-11-14-11-11-16-12-12-16-12-12-12-12-12-16-12-12-12-12-12-16-|----------------------------------------------------------------------------------------------|
(end Intro) Rhy. Fig. 1 (both gtr. I&II)
-------------------------------------------------------------------------------------|-------------------------------------------------------------------------------------|-------------------------------------------------------------------------------------|---------6-----6\4-2--2-2-2-2-2--2-2-2-2-2----------6-----6\4-2----------------------|-4-4-4-4-4-4p0-4\2-0--0-0-0-0-0--0-0-0-0-0--4-4-4-4-4-4p0-4\2-0-----------0--2--4--5-|-----------------------------------------------------------------0--2--4-------------|
--------------------------------------------------------------------------------------------------|--------------------------------------------------------------------------------------------------|--------------------------------------------------------------------------------------------------|---------6-----6\4-2--2-2-2-2-2--2-2-2-2-2------------6p4-------6p4-------6p4---------------------|-4-4-4-4-4-4p0-4\2-0--0-0-0-0-0--0-0-0-0-0--0-0-0-0-0-----0-0-0-----0-0-0-------------------------|--------------------------------------------------------------------------------------------------|
Fill 1 (both gtr.I&II)
-------------------------| -------------------------| -----------------6-6-4-4-| ---------6-6-7-7---------| -7-7-9-9-----------------| -------------------------|
(end Rhy. Fig. 1) Slower = 140 bpm Intro Solo (gtr.I) (gtr.II plays Rhy.Fig.1 and Fill 1)
-----------------------------------19---21--16h19p16-14h17p14-12h14--14\16------------22b24-r22-|-/14~-------14/16-17--19-16--16h17------------------------------------------21-19-17------------|---------13-------------------------------------------------------------------------------------|------------------------------------------------------------------------------------------------|------------------------------------------------------------------------------------------------|------------------------------------------------------------------------------------------------|
(end Intro Solo, Rhy.Fig.1 and Fill 1) Rhy.Fig.2 (gtr.I&II) (play 2 times)
--------------------------------------------------------------|--------------------------------------------------------------|--------------------------------------------------------------|-6---6-4/6--4-6-----2-1---------------------------------------|-4---4-2/4--2-4---------5p4-2-----4-----7-----4-------------2-|---0------0-----0-0---------0-0-0-2-0-0-5-0-0-2-0-0-0-2-4-5---|
(end Rhy.Fig.2)
-------------------------------------------------------------------------------------------|-------------------------------------------------------------------------------------------|-------------------------------------------------------------------------------------------|-14-11-11-11-11-11-14-11-11-11-11-11-14-11-11-14-11-11-14-11-11-11-11-11-14-11-11-11-11-11-|-------------------------------------------------------------------------------------------|-------------------------------------------------------------------------------------------|
----------------------------------------------------------------------------------------------|----------------------------------------------------------------------------------------------|----------------------------------------------------------------------------------------------|----------------------------------------------------------------------------------------------|-14-11-11-11-11-11-14-11-11-11-11-11-14-11-11-16-12-12-16-12-12-12-12-12-16-12-12-12-12-12-16-|----------------------------------------------------------------------------------------------|
Rhy.Fig.3 (gtr.I&II) (play 2 times)
-------------------------------|-------------------------------|-6------4-4--------------------|-6------4-4---/6-4-2---4-2-4-6-|-4------2-2---/4-2-0---2-0-2-4-|-4-----------------------------|
(end Rhy.Fig.3) Rhy.Fig.2 (gtr.I&II) (play 4 times)
--------------------------------------------------------------|--------------------------------------------------------------|--------------------------------------------------------------|-6---6-4/6--4-6-----2-1---------------------------------------|-4---4-2/4--2-4---------5p4-2-----4-----7-----4-------------2-|---0------0-----0-0---------0-0-0-2-0-0-5-0-0-2-0-0-0-2-4-5---|
(end Rhy.Fig.2)
-------------------------------------------------------------------------------------------|-------------------------------------------------------------------------------------------|-------------------------------------------------------------------------------------------|-14-11-11-11-11-11-14-11-11-11-11-11-14-11-11-14-11-11-14-11-11-11-11-11-14-11-11-11-11-11-|-------------------------------------------------------------------------------------------|-------------------------------------------------------------------------------------------|
----------------------------------------------------------------------------------------------|----------------------------------------------------------------------------------------------|----------------------------------------------------------------------------------------------|----------------------------------------------------------------------------------------------|-14-11-11-11-11-11-14-11-11-11-11-11-14-11-11-16-12-12-16-12-12-12-12-12-16-12-12-12-12-12-16-|----------------------------------------------------------------------------------------------|
Rhy.Fig.3 (gtr.I&II) (play 4 times)
-------------------------------|-------------------------------|-6------4-4--------------------|-6------4-4---/6-4-2---4-2-4-6-|-4------2-2---/4-2-0---2-0-2-4-|-4-----------------------------|
(end Rhy.Fig.3) Begin Breakdown
-----------------------------------------------|-------------------2-----------------------5-4-|-----6-8-6-------2---4---------2-1-------------|---6-----------2-------------4-----------6-----|-4-----------0-------------4-----------6-------|-------------------------2-----------4---------|
------------------------------------------------| -------------------2-----------------------5-4~-| -----6-8-6~------2---4~--------2-1~-------------| ---6-----------2-------------4-----------6------| -4-----------0-------------4-----------6--------| -------------------------2-----------4----------|p.h. . . . .
---------------------------------------------------|---------------------------------------------------|-------------6---------8---------9-----------------|-----------6---------6---------6-------------------|-7-7-----7---------7---------7--------9-7-6--7-6---|-9-9---9---------9---------9---------------------9-|
---------------------------------------------------|---------------------------------------------------|-------------6~--------8~--------9~----------------|-----------6---------6---------6-------------------|-7-7-----7---------7---------7--------9-7-6--7-6---|-9-9---9---------9---------9---------------------9-|p.h. . . .
I haven't quite figured the solo yet, but other than that, you can figure the rest
Tap to rate this tab
 
# A B C D E F G H I J K L M N O P Q R S T U V W X Y Z