Hit The Lights tab with lyrics by All Time Low - Easy chords and tabs for guitar

All Time Low – Hit The Lights tab

Song: Hit The Lights
Artist: Black Tide
Album: Light From Above
Tabber: mosher666


Guitar 1

E||------------------|----------------------|------------|------------------|B||------------------|----------------------|------------|------------------|G||------------------|----------------------|------------|------------------|D||--2---------------|--2----2----2----2----|--2----2----|--2---------------|A||--2---------------|--2----2----2----2----|--2----2----|--2---------------|E||--0---------------|--0----0----0----0----|--0----0----|--0---------------|//
|------------------|-----------------|------------------||------------------|-----------------|------------------||------------------|-----------------|------------------||------------------|-----------------|------------------||--4---------------|-----------------|--x\--------------||--2---------------|-----------------|--x\--------------|//
|-----------------------------|-------------------------------||-----------------------------|-------------------------------||-----------------5--7-7---0--|-------------------------------||--5--------------5--7-7---0--|--5--------------7p5---5-------||--0--0-0-0-0-0-0-------------|--0--0-0-0-0-0-0-----7----6-7--||-----------------------------|-------------------------------|
|------------------------------|----------------------------||------------------------------|----------------------------||-----------------5--7-7--0-0--|--5-------------------7b----||--5--------------5--7-7--0-0--|--5-------------------------||--0--0-0-0-0-0-0--------------|-----0-0-0-0-0-0-6h7--------||------------------------------|----------------------------|
|-----------------------------|-------------------------------||-----------------------------|-------------------------------||-----------------5--7-7---0--|--5----------------------------||--5--------------5--7-7---0--|--5--------------7p5---5-------||--0--0-0-0-0-0-0-------------|-----0-0-0-0-0-0-----7----6-7--||-----------------------------|-------------------------------|
|------------------------------|----------------------------------||------------------------------|----------------------------------||-----------------5--7-7--0-0--|-----------------------------(5)--||--5--------------5--7-7--0-0--|--5----------------(5)---(5)------||--0--0-0-0-0-0-0--------------|--0--0-0-0-0-0-(5)----------------||------------------------------|----------------------------------|
|------------------------------|-------------------------------||------------------------------|-------------------------------||-----------------5--7-7--0-0--|-------------------------------||--5--------------5--7-7--0-0--|--5--------------7p5---5-------||--0--0-0-0-0-0-0--------------|--0--0-0-0-0-0-0-----7----6-7--||------------------------------|-------------------------------|
|------------------------------|-------------------------------||------------------------------|-------------------------------||-----------------5--7-7--0-0--|--5----------------------------||--5--------------5--7-7--0-0--|--5--------------7p5---5-------||--0--0-0-0-0-0-0--------------|-----0-0-0-0-0-0-----7----6-7--||------------------------------|-------------------------------|
Verse|----------------------|-----------------------|------------------------------||----------------------|-----------------------|------------------------------||--7--7----------------|--7--7-----------------|-----------------5--7-7--0-0--||--7--7------5--5------|--7--7-----------------|--5--------------5--7-7--0-0--||--5--5------5--5------|--5--5------3---2------|--0--0-0-0-0-0-0--------------||------------3--3------|--------------------3--|------------------------------|
|-------------------------------|------------------------------||-------------------------------|------------------------------||-------------------------------|-----------------5--7-7--0-0--||--5--------------7p5---5-------|--5--------------5--7-7--0-0--||--0--0-0-0-0-0-0-----7----6-7--|--0--0-0-0-0-0-0--------------||-------------------------------|------------------------------|
|-------------------------------|----------------------|-----------------------||-------------------------------|----------------------|-----------------------||--5----------------------------|--7--7----------------|--7--7-----------------||--5--------------7p5---5-------|--7--7------5--5------|--7--7-----------------||-----0-0-0-0-0-0-----7----6-7--|--5--5------5--5------|--5--5------3---2------||-------------------------------|------------3--3------|--------------------3--|
------------------------------|-------------------------------|------------------------------|-------------------------------|-----------------5--7-7--0-0--|-------------------------------|--5--------------5--7-7--0-0--|--5--------------7p5---5-------|--0--0-0-0-0-0-0--------------|--0--0-0-0-0-0-0-----7----6-7--|------------------------------|-------------------------------|
|--------------------|--------------------------------|-----------------------||--------------------|--------------------------------|-----------------------||--------------------|--------------------------------|-----------------------||-----9--------------|--------------------------------|--2----2------2---2----||-----7--------------|-----------------3----2---------|--0----0------0---0----||--0-----------------|--3----2----3--------------3----|------------3----------|
|---------------------|-----------------------|---------------------||---------------------|-----------------------|---------------------||---------------------|-----------------------|---------------------||----2---2----5-------|--2----2------2---2----|----2---2----5-------||----0---0----3---5---|--0----0------0---0----|----0---0----3---5---||--3--------------3---|------------3----------|--3--------------3---|
|-----------------------|---------------------|-----------------------||-----------------------|---------------------|-----------------------||-----------------------|---------------------|-----------------------||--2----2------2---2----|----2---2----5-------|--2----2------2---2----||--0----0------0---0----|----0---0----3---5---|--0----0------0---0----||------------3----------|--3--------------3---|------------3----------|
|-----------------|------------------------------||-----------------|------------------------------||-----------------|-----------------5--7-7--0-0--||-----------------|--5--------------5--7-7--0-0--||-----------------|--0--0-0-0-0-0-0--------------||-----------------|------------------------------|
|-------------------------------|------------------------------||-------------------------------|------------------------------||-------------------------------|-----------------5--7-7--0-0--||--5--------------7p5---5-------|--5--------------5--7-7--0-0--||--0--0-0-0-0-0-0-----7----6-7--|--0--0-0-0-0-0-0--------------||-------------------------------|------------------------------|
|-------------------------------|----------------------|-----------------------||-------------------------------|----------------------|-----------------------||--5----------------------------|--7--7----------------|--7--7-----------------||--5--------------7p5---5-------|--7--7------5--5------|--7--7-----------------||-----0-0-0-0-0-0-----7----6-7--|--5--5------5--5------|--5--5------3---2------||-------------------------------|------------3--3------|--------------------3--|
|------------------------------|-------------------------------||------------------------------|-------------------------------||-----------------5--7-7--0-0--|-------------------------------||--5--------------5--7-7--0-0--|--5--------------7p5---5-------||--0--0-0-0-0-0-0--------------|--0--0-0-0-0-0-0-----7----6-7--||------------------------------|-------------------------------|
|------------------------------|-------------------------------||------------------------------|-------------------------------||-----------------5--7-7--0-0--|--5----------------------------||--5--------------5--7-7--0-0--|--5--------------7p5---5-------||--0--0-0-0-0-0-0--------------|-----0-0-0-0-0-0-----7----6-7--||------------------------------|-------------------------------|
|----------------------|-----------------------|------------------------------||----------------------|-----------------------|------------------------------||--7--7----------------|--7--7-----------------|-----------------5--7-7--0-0--||--7--7------5--5------|--7--7-----------------|--5--------------5--7-7--0-0--||--5--5------5--5------|--5--5------3---2------|--0--0-0-0-0-0-0--------------||------------3--3------|--------------------3--|------------------------------|
|-------------------------------|--------------------||-------------------------------|--------------------||-------------------------------|--------------------||--5--------------7p5---5-------|-----9--------------||--0--0-0-0-0-0-0-----7----6-7--|-----7--------------||-------------------------------|--0-----------------|
|--------------------------------|-----------------------|---------------------||--------------------------------|-----------------------|---------------------||--------------------------------|-----------------------|---------------------||--------------------------------|--2----2------2---2----|----2---2----5-------||-----------------3----2---------|--0----0------0---0----|----0---0----3---5---||--3----2----3--------------3----|------------3----------|--3--------------3---|
|-----------------------|---------------------|-----------------------||-----------------------|---------------------|-----------------------||-----------------------|---------------------|-----------------------||--2----2------2---2----|----2---2----5-------|--2----2------2---2----||--0----0------0---0----|----0---0----3---5---|--0----0------0---0----||------------3----------|--3--------------3---|------------3----------|
|---------------------|-----------------------|----------------||---------------------|-----------------------|----------------||---------------------|-----------------------|----------------||----2---2----5-------|--2----2------2---2----|----------------||----0---0----3---5---|--0----0------0---0----|----------------||--3--------------3---|------------3----------|----------------|
|------------------------------|-------------------------------||------------------------------|-------------------------------||-----------------5--7-7--0-0--|-------------------------------||--5--------------5--7-7--0-0--|--5--------------7p5---5-------||--0--0-0-0-0-0-0--------------|--0--0-0-0-0-0-0-----7----6-7--||------------------------------|-------------------------------|
|------------------------------|-------------------------------||------------------------------|-------------------------------||-----------------5--7-7--0-0--|--5----------------------------||--5--------------5--7-7--0-0--|--5--------------7p5---5-------||--0--0-0-0-0-0-0--------------|-----0-0-0-0-0-0-----7----6-7--||------------------------------|-------------------------------|
|----------------------|-----------------------|------------------------------||----------------------|-----------------------|------------------------------||--7--7----------------|--7--7-----------------|-----------------5--7-7--0-0--||--7--7------5--5------|--7--7-----------------|--5--------------5--7-7--0-0--||--5--5------5--5------|--5--5------3---2------|--0--0-0-0-0-0-0--------------||------------3--3------|--------------------3--|------------------------------|
|-------------------------------|------------------------------||-------------------------------|------------------------------||-------------------------------|-----------------5--7-7--0-0--||--5--------------7p5---5-------|--5--------------5--7-7--0-0--||--0--0-0-0-0-0-0-----7----6-7--|--0--0-0-0-0-0-0--------------||-------------------------------|------------------------------|
|-------------------------------|----------------------|-----------------------||-------------------------------|----------------------|-----------------------||--5----------------------------|--7--7----------------|--7--7-----------------||--5--------------7p5---5-------|--7--7------5--5------|--7--7-----------------||-----0-0-0-0-0-0-----7----6-7--|--5--5------5--5------|--5--5------3---2------||-------------------------------|------------3--3------|--------------------3--|
|------------------------------|-------------------------------||------------------------------|-------------------------------||-----------------5--7-7--0-0--|-------------------------------||--5--------------5--7-7--0-0--|--5--------------7p5---5-------||--0--0-0-0-0-0-0--------------|--0--0-0-0-0-0-0-----7----6-7--||------------------------------|-------------------------------|
|--------------------|--------------------------------|-----------------------||--------------------|--------------------------------|-----------------------||--------------------|--------------------------------|-----------------------||-----9--------------|--------------------------------|--2----2------2---2----||-----7--------------|-----------------3----2---------|--0----0------0---0----||--0-----------------|--3----2----3--------------3----|------------3----------|
|---------------------|-----------------------|---------------------||---------------------|-----------------------|---------------------||---------------------|-----------------------|---------------------||----2---2----5-------|--2----2------2---2----|----2---2----5-------||----0---0----3---5---|--0----0------0---0----|----0---0----3---5---||--3--------------3---|------------3----------|--3--------------3---|
|-----------------------|---------------------|-----------------------||-----------------------|---------------------|-----------------------||-----------------------|---------------------|-----------------------||--2----2------2---2----|----2---2----5-------|--2----2------2---2----||--0----0------0---0----|----0---0----3---5---|--0----0------0---0----||------------3----------|--3--------------3---|------------3----------|
|---------------------|--------------------||------------------------||---------------------|--------------------||------------------------||---------------------|-----------4--------||*------------------5----||----2---2----5-------|--2--------5--------||*--7---7---7---7---5----||----0---0----3---5---|--0--------5--------||---0---0---0---0--------||--3--------------3---|-----------3--------||------------------------|
|-----------------------|-----------------------|-----------------------||-----------------------|-----------------------|-----------------------| x3|------------------7----|------------------5----|----------------------*||--7---7---7---7---7----|--7---7---7---7---5----|--7---5---------------*| |--0---0---0---0--------|--0---0---0---0--------|----------7--6--5------||-----------------------|-----------------------|-------------------8---|
|-----------------------|-----------------------|-----------------------||-----------------------|-----------------------|-----------------------||--4---4---4---4---7----|--4---4---4---4---9----|--4---4---4---4---7----||--4---4---4---4---7----|--4---4---4---4---9----|--4---4---4---4---7----||--2---2---2---2---5----|--2---2---2---2---7----|--2---2---2---2---5----||-----------------------|-----------------------|-----------------------|
|-----------------------|-----------------------|-----------------------||-----------------------|-----------------------|-----------------------||-----------------------|--4---4---4---4---7----|--4---4---4---4---9----||--9---7----------------|--4---4---4---4---7----|--4---4---4---4---9----||----------9--8--7------|--2---2---2---2---5----|--2---2---2---2---7----||-------------------10--|-----------------------|-----------------------|
|-----------------------|-----------------------|-----------------------||-----------------------|-----------------------|-----------------------||--4---4---4---4---7----|-----------------------|--4---4---4---4---7----||--4---4---4---4---7----|--9---7----------------|--4---4---4---4---7----||--2---2---2---2---5----|----------9--8--7------|--2---2---2---2---5----||-----------------------|-------------------10--|-----------------------|
|-----------------------|-----------------------|-----------------------||-----------------------|-----------------------|-----------------------||--4---4---4---4---9----|--4---4---4---4---7----|-----------------------||--4---4---4---4---9----|--4---4---4---4---7----|--9---7----------------||--2---2---2---2---7----|--2---2---2---2---5----|----------9--8--7------||-----------------------|-----------------------|-------------------10--|
|-----------------------|-----------------------|-----------------------||-----------------------|-----------------------|-----------------------||--4---4---4---4---7----|--4---4---4---4---9----|--4---4---4---4---7----||--4---4---4---4---7----|--4---4---4---4---9----|--4---4---4---4---7----||--2---2---2---2---5----|--2---2---2---2---7----|--2---2---2---2---5----||-----------------------|-----------------------|-----------------------|
|-----------------------|-----------------------|-----------------------||-----------------------|-----------------------|-----------------------||-----------------------|--4---4---4---4---7----|--4---4---4---4---9----||--9---7----------------|--4---4---4---4---7----|--4---4---4---4---9----||----------9--8--7------|--2---2---2---2---5----|--2---2---2---2---7----||-------------------10--|-----------------------|-----------------------|
|-----------------------|-----------------------|-----------------------||-----------------------|-----------------------|-----------------------||--4---4---4---4---7----|-----------------------|--4---4---4---4---7----||--4---4---4---4---7----|--9---7----------------|--4---4---4---4---7----||--2---2---2---2---5----|----------9--8--7------|--2---2---2---2---5----||-----------------------|-------------------10--|-----------------------|
|-----------------------|-----------------------|-----------------------||-----------------------|-----------------------|-----------------------||--4---4---4---4---9----|--4---4---4---4---7----|-----------------------||--4---4---4---4---9----|--4---4---4---4---7----|--9---7----------------||--2---2---2---2---7----|--2---2---2---2---5----|----------9--8--7------||-----------------------|-----------------------|-------------------10--|
|-----------------------|-----------------------|-----------------------||-----------------------|-----------------------|-----------------------||--4---4---4---4---7----|--4---4---4---4---9----|--4---4---4---4---7----||--4---4---4---4---7----|--4---4---4---4---9----|--4---4---4---4---7----||--2---2---2---2---5----|--2---2---2---2---7----|--2---2---2---2---5----||-----------------------|-----------------------|-----------------------|
|-----------------------|-----------------------|-----------------------||-----------------------|-----------------------|-----------------------||-----------------------|--4---4---4---4---7----|--4---4---4---4---9----||--9---7----------------|--4---4---4---4---7----|--4---4---4---4---9----||----------9--8--7------|--2---2---2---2---5----|--2---2---2---2---7----||-------------------10--|-----------------------|-----------------------|
|-----------------------|-----------------------|-----------------------||-----------------------|-----------------------|-----------------------||--4---4---4---4---7----|-----------------------|------------------5----||--4---4---4---4---7----|--9---7----------------|--7---7---7---7---5----||--2---2---2---2---5----|----------9--8--7------|--7---7---7---7---3----||-----------------------|-------------------10--|--5---5---5---5--------|
|-----------------------|-----------------------|----------------------||-----------------------|-----------------------|----------------------||------------------7----|------------------5----|----------------------||--7---7---7---7---7----|--7---7---7---7---5----|--7---5---------------||--7---7---7---7---5----|--7---7---7---7---3----|----------7--6--5-----||--5---5---5---5--------|--5---5---5---5--------|-------------------8--|
|-----------------------|-----------------------|-----------------------||-----------------------|-----------------------|-----------------------||------------------5----|------------------7----|------------------5----||--7---7---7---7---5----|--7---7---7---7---7----|--7---7---7---7---5----||--7---7---7---7---3----|--7---7---7---7---5----|--7---7---7---7---3----||--5---5---5---5--------|--5---5---5---5--------|--5---5---5---5--------|
|----------------------|----------------------|----------------------||----------------------|----------------------|----------------------||----------------------|----------------------|----------------------||--7---5---------------|--7---5---------------|--7---5---------------||----------7--6--5-----|----------7--6--5-----|----------7--6--5-----||-------------------8--|-------------------8--|-------------------8--|
|------------------------------------------------------------------||------------------------------------------------------------------||--2-2-2-2-2-2-2-2-2-2-2-2-2-2-2-2-2-2-2-2-2-2-2-2-2-2-2-2-2-2-2-2-||--2-2-2-2-2-2-2-2-2-2-2-2-2-2-2-2-2-2-2-2-2-2-2-2-2-2-2-2-2-2-2-2-||--0-0-0-0-0-0-0-0-0-0-0-0-0-0-0-0-0-0-0-0-0-0-0-0-0-0-0-0-0-0-0-0-||------------------------------------------------------------------|
|------------------------------------------------------------------||------------------------------------------------------------------||--2-2-2-2-2-2-2-2-2-2-2-2-2-2-2-2-2-2-2-2-2-2-2-2-2-2-2-2-2-2-2-2-||--2-2-2-2-2-2-2-2-2-2-2-2-2-2-2-2-2-2-2-2-2-2-2-2-2-2-2-2-2-2-2-2-||--0-0-0-0-0-0-0-0-0-0-0-0-0-0-0-0-0-0-0-0-0-0-0-0-0-0-0-0-0-0-0-0-||------------------------------------------------------------------|
|-----------------|----------------|-------------------||-----------------|----------------|-------------------||--2--------------|----------------|--2----2-----------||--2--------------|----------------|--2----2-----------||--0--------------|----------------|--0----0-----------||-----------------|----------------|-------------------|
Guitar 2:
|-----17----------------------17-------20p17-------||--------20p17----17-20p17-------20p17-------20-17-||--19b---------19b---------19b---------------------||--------------------------------------------------||--------------------------------------------------||--------------------------------------------------|
|--------------20p17-------------------------------||-----17-20p17-------20-17\16-17-20p17-------------||--19b---------------------------------19-17----17-||--------------------------------------------19----||--------------------------------------------------||--------------------------------------------------|
|--------------------------------------20b---||-----17-20p17----17-20p17----17-20p17-------||--19b---------19b---------19b---------------||--------------------------------------------||--------------------------------------------||--------------------------------------------|
|--20p17-17-17-20p17-------------------------|----------------||--------------------20-17----17-20p17-------|----------------||--------------------------19b---------19b---|----------------||--------------------------------------------|----------------||--------------------------------------------|----------------||--------------------------------------------|----------------|
mini solo:
|------17-----17-----17------17------17--||--20b----20b----20b-----20b-----20b-----||----------------------------------------||----------------------------------------||----------------------------------------||----------------------------------------|
|-----17-----17------17------17-----17----17-||--------20b-----20b-----20b-----------20b---||--19b--------------------------19b----------||--------------------------------------------||--------------------------------------------||--------------------------------------------|
|--20p17----17-20p17-------------------------------||--------20----------20-17-17-17-20p17-19----------||--------------------------------------19-17----17-||--------------------------------------------19----||--------------------------------------------------||--------------------------------------------------|
|----------------------------------------|----------------|----------------||----------------------------------------|----------------|----------------||--19b17---------------------------------|----------------|----------------||--------19-17----17-19-17---------------|----------------|----------------||--------------19----------19--17--15----|----------------|----------------||----------------------------------------|----------------|----------------|
Main solo
|-----7--------7------------------------|--------------------------------------||------10p7------10p7---7-10p7---7-10p7-|----7-10p7---7-10p7---7-10p7---7-10p7-||--9b-------9b--------9b-------9b-------|--9b-------9b-------9b-------9b-------||---------------------------------------|--------------------------------------||---------------------------------------|--------------------------------------||---------------------------------------|--------------------------------------|
|--10p7-9p7---7-9p7-10p7-9p7---7-10p7-|-----------------7--7--7--||-----------9----------------9--------|--10b12----r10------------||-------------------------------------|--------------------------||-------------------------------------|--------------------------||-------------------------------------|--------------------------||-------------------------------------|--------------------------|
|--7-10p7----7-10p7-----------------------|-------------------------------||---------10--------10-7-7-7-10-7---------|-------------------------------||---------------------------------9-7-7-7-|--9p7--------------------------||-----------------------------------------|------9-7---7-9-7--------------||-----------------------------------------|----------9-------9-7-5--5-----||-----------------------------------------|----------------------------7--|
|---------------------------------|------------------------||---------------------------------|--------------------19--||-----------------------------7---|--9b--9b--9b-9b-21b-----||-------------7-7-9p7-7-7-7-9---9-|------------------------||------5--7/9---------------------|------------------------||--5h7----------------------------|------------------------|
|----------------------------------------------||-------19----19----19-22-19----19-22p19-24p19-||---21b----21b---21b---------21----------------||----------------------------------------------||----------------------------------------------||----------------------------------------------|
|--------------------------------------------------||--22-19----19-22p19-24p19-22-19----19-22p19-24p19-||--------21----------------------21----------------||--------------------------------------------------||--------------------------------------------------||--------------------------------------------------|
|--------------------------------------------------||--22-19----19-22p19-------------17----------------||--------21----------21-18\16-18----18-16-14-14-14-||--------------------------------------------------||--------------------------------------------------||--------------------------------------------------|
|------------------------------|--22r-------22b---21r-19----19-||--17---17---17--17~-17--17-14-|-------------------------22----||--16b--16b--16b-16b-16b-16-14-|-------------------------------||------------------------------|-------------------------------||------------------------------|-------------------------------||------------------------------|-------------------------------|
|--22p19-------------------------------------------||--------22-19----19-22p19-------------------------||--------------21b---------21-19----19-21p19-------||--------------------------------21----------21-19-||--------------------------------------------------||--------------------------------------------------|
|--------------------------------------------------||--------------------------------------------------||--------------------------------------------------||-----19-21p19-----------------------------19--21--||--21----------21-19-17-17-19-17-16-17/21----------||--------------------------------------------------|
|------------------19---14p12-||-----------------------------||--21b--21b--21b--------------||-----------------------------||-----------------------------||-----------------------------|
|--17p14--17p14p12-17p14p12-17p14p12-17p14p12-17p14p12-17p14p12--------||---------------------------------------------------------------17p14--||----------------------------------------------------------------------||----------------------------------------------------------------------||----------------------------------------------------------------------||----------------------------------------------------------------------|
|--17p14-14-----17p14p12------17p14p12----0-17p14p12----0-||-----------x-0----------17-0----------17------------17---||---------------------------------------------------------||---------------------------------------------------------||---------------------------------------------------------||---------------------------------------------------------|
|--17p14p12----0-17p14p12----0-17p14-----14-17p14-------||-----------17------------17----------17----------17-14-||-------------------------------------------------------||-------------------------------------------------------||-------------------------------------------------------||-------------------------------------------------------|
|----------------------------|-----------------------||-----14-17--17b-17b-17r-----|----9b-----------------||--16b-----------------------|----9b-----7-------7-9b||----------------------------|-------------9---------||----------------------------|-----------------------||----------------------------|-----------------------|
|-----------------------------------||---7-10-7---7-10-7-----------------||----------9--------9-7-9-7---7~-9\-||---------------------------9-------||-----------------------------------||-----------------------------------|
|--------14-------17p14-------------------------------||--12/14----17p14-------17-14----14-17p14-------------||-----------------------------16b---------16-14-14-14-||-----------------------------------------------------||-----------------------------------------------------||-----------------------------------------------------|
|--------------------------|--22r-------22b---21r-19-19-19-||--------------------------|-------------------------------||--16b--16b--16b---16r-14--|-------------------------------||--------------------------|-------------------------------||--------------------------|-------------------------------||--------------------------|-------------------------------|
|--22p19-------------------------------------------||--------22-19----19-22p19-------------------------||--------------21b---------21-19-19-19-21p19-------||--------------------------------------------21-19-||--------------------------------------------------||--------------------------------------------------|
|--------------------------------------------------||--------------------------------------------------||--------------------------------------------------||-----19-21p19-------------------------------19-21-||--21----------21-19-17-17-19-17-16-17-19/21-------||--------------------------------------------------|
|--------------------------------------------||--------------------------------------------||--19-19-21p19-19-19-21p19-21-19----19/20----||--------------------------------21-18/19-21-||--------------------------------------------||--------------------------------------------|
|--------------------------------------------------||--15-15-12----13-16-13-14-17p14----15-18p15----16-||-----------13-------------------15----------16----||--------------------------------------------------||--------------------------------------------------||--------------------------------------------------|
|---------------------------------------------13-||--19p16----17-20p17----18-21p18----18-21~-15----||--------17----------18----------18--------------||------------------------------------------------||------------------------------------------------||------------------------------------------------|
|--17p14----15-19p16----16-20p17----18-21p18----19-|--22b--22b--22r-------||--------16----------18----------20----------20----|----------------------||--------------------------------------------------|----------------------||--------------------------------------------------|----------------------||--------------------------------------------------|----------------------||--------------------------------------------------|----------------------|
|--------------------------------------------------||---17-17-20p17-19p17-x-17-22p17-20p17----17\16-17-||--------------------------------------20----------||--------------------------------------------------||--------------------------------------------------||--------------------------------------------------|
|--------------------------------------------------||--22p17-20p17-19p17----17-22p17-20p17-19p17-17-17-||--------------------20----------------------------||--------------------------------------------------||--------------------------------------------------||--------------------------------------------------|
|--------------------------------------------------|--22b-------22b-----||--22p17-20p17-19p17----17-22p17-20p17-19p17-17-17-|--------------------||--------------------20----------------------------|--------------------||--------------------------------------------------|--------------------||--------------------------------------------------|--------------------||--------------------------------------------------|--------------------|
|--20p17-17-17-20p17-------------------------------||--------------------20-17-17-17-20p17-------------||--------------------------------------19-17----19-||--------------------------------------------19----||--------------------------------------------------||--------------------------------------------------|
|---------------------------------------------------||---------------------------------------------------||--17-17-17h19p17-----------------------------------||-----------------19-17----17-19p17-----------------||-----------------------19----------19-17-15--------||--------------------------------------------17-17b-|
|------------------------------------------------||---------------------------------------------17-||---------------------------------------17-19----||------------------17-17-19p17----17-19----------||--------15-17/19--------------19----------------||--15-17-----------------------------------------|
|-----------------------20p17----------------------------||--20-17\16-20p17-20p17-------20-17-17-17-17-20-17\16-17-||--------------------------------------------------------||--------------------------------------------------------||--------------------------------------------------------||--------------------------------------------------------|
|--------------------------------------------------||--20p17----------------------------------17-20p17-||--------19b17-17-17-19-17----17-19-17-19b---------||--------------------------19----------------------||--------------------------------------------------||--------------------------------------------------|
|--20p17----------------------------------------------||--------20-17-17-17-20p17-17-------------------------||-----------------------------19-17-17-17-19p17-17-17-||-----------------------------------------------------||-----------------------------------------------------||-----------------------------------------------------|
|--------------------------|--------------------------|------------------||--20----20----20----20----|--20----20----------------|--20--------------||--19b---19b---19b---19b---|--19b---19b---19b---19b---|--19b-------------||--------------------------|--------------------------|------------------||--------------------------|--------------------------|------------------||--------------------------|--------------------------|------------------|
|----------------|---------------------||----------------|--20----20-----------||----------------|--19b---19b----------||----------------|---------------------||----------------|---------------------||----------------|---------------------|
Please rate this tab:
x1.0