All Time Low - Bad Enough For You tab

-----------------------------------
 Bad Enough For You ~ All Time Low
-----------------------------------
Dirty Work   (2011)


Tempo = About 93

Legend:
L - tied note
x - dead note
h - hammer on/pull off
b - bend
s - slide
~ - vibrato
g - ghost note
> - accentuated note
t - trill
M - palm mute
. - staccato
P - popping (bass)
S - slapping (bass)
+ - tapping
W - wide vibrato
< - fade in
w - whammy bar
= - tremolo picking
v - brush up
^ - brush down
V - pick stroke up
n - pick stroke down

Intro VerseE |-------|-------|----------------------------------------------------|B |-------|-------|----------------------------------------------------|G |-------|-------|----------------------------------------------------|D |-------|-------|----------------------------------------------------|A |-------|-------|--2--2--2--2----------------------------------------|E |-------|-------|----------------------------------------------------|
----------------------------------------------------|----------------------------------------------------|----------------------------------------------------|----------------------------------------------------|--4--4--4--4----------------------------------------|----------------------------------------------------|
----------------------------------------------------|----------------------------------------------------|----------------------------------------------------|----------------------------------------------------|--7--7--7--7----------------------------------------|----------------------------------------------------|
----------------------------------------------------|----------------------------------------------------|----------------------------------------------------|----------------------------------------------------|--2--2--2--2----------------------------------------|----------------------------------------------------|
----------------------------------------------------|----------------------------------------------------|----------------------------------------------------|----------------------------------------------------|--2--2--2--2----------------------------------------|----------------------------------------------------|
----------------------------------------------------|----------------------------------------------------|----------------------------------------------------|----------------------------------------------------|--4--4--4--4----------------------------------------|----------------------------------------------------|
----------------------------------------------------|----------------------------------------------------|----------------------------------------------------|----------------------------------------------------|--7--7--7--7----------------------------------------|----------------------------------------------------|
----------------------------------------------------|----------------------------------------------------|----------------------------------------------------|----------------------------------------------------|--2--2--2--2----------------------------------------|----------------------------------------------------|
Pre-Chorus----------------------------------------------------|----------------------------------------------------|----------------------------------------------------|----------------------------------------------------|--7-----7--7--------------------------7-------------|----------------------------------------------------|
----------------------------------------------------|----------------------------------------------------|----------------------------------------------------|----------------------------------------------------|--6-----6--6--------------------------6-------------|----------------------------------------------------|
----------------------------------------------------|----------------------------------------------------|----------------------------------------------------|----------------------------------------------------|--7-----7--7--------------------------7-------------|----------------------------------------------------|
----------------------------------------------------|----------------------------------------------------|----------------------------------------------------|----------------------------------------------------|--9--9--9--9--9--9--9--9--9--9--9--9--9--9--9--9----|----------------------------------------------------|
----------------------------------------------------|----------------------------------------------------|----------------------------------------------------|----------------------------------------------------|--9--9--9--9--9--9--9--9--9--9--9--9--9-------------|----------------------------------------------------|
Chorus----------------------------------------------------|----------------------------------------------------|--4-----4--4-----4--4--4--6-----6--6-----6--6--6----|--4-----4--4-----4--4--4--6-----6--6-----6--6--6----|--2-----2--2-----2--2--2--4-----4--4-----4--4--4----|----------------------------------------------------|
----------------------------------------------------|----------------------------------------------------|----------------------------------------------------|--6-----6--6-----6--6--6--4-----4--4-----4--4--4----|--6-----6--6-----6--6--6--4-----4--4-----4--4--4----|--4-----4--4-----4--4--4--2-----2--2-----2--2--2----|
----------------------------------------------------|----------------------------------------------------|--4-----4--4-----4--4--4--6-----6--6-----6--6--6----|--4-----4--4-----4--4--4--6-----6--6-----6--6--6----|--2-----2--2-----2--2--2--4-----4--4-----4--4--4----|----------------------------------------------------|
----------------------------------------------------|----------------------------------------------------|----------------------------------------------------|--6-----6--6-----6--6--6--4-----4--4-----4--4--4----|--6-----6--6-----6--6--6--4-----4--4-----4--4--4----|--4-----4--4-----4--4--4--2-----2--2-----2--2--2----|
----------------------------------------------------|----------------------------------------------------|--4-----4--4-----4--4--4--6-----6--6-----6--6--6----|--4-----4--4-----4--4--4--6-----6--6-----6--6--6----|--2-----2--2-----2--2--2--4-----4--4-----4--4--4----|----------------------------------------------------|
----------------------------------------------------|----------------------------------------------------|----------------------------------------------------|--6-----6--6-----6--6--6--4-----4--4-----4--4--4----|--6-----6--6-----6--6--6--4-----4--4-----4--4--4----|--4-----4--4-----4--4--4--2-----2--2-----2--2--2----|
----------------------------|----------------------------|----------------------------|--2--2L-------2-------------|--2--2L-------2-------------|--0--0L-------0-------------|
----------------------------------------------------|----------------------------------------------------|----------------------------------------------------|--6--------6--------------4--------4----------------|--6--------6--------------4--------4----------------|--4--------4--------------2--------2----------------|
----------------------------------------------------|----------------------------------------------------|--4-----4--4-----4--4--4--6-----6--6-----6--6--6----|--4-----4--4-----4--4--4--6-----6--6-----6--6--6----|--2-----2--2-----2--2--2--4-----4--4-----4--4--4----|----------------------------------------------------|
----------------------------------------------------|----------------------------------------------------|----------------------------------------------------|--6-----6--6-----6--6--6--4-----4--4-----4--4--4----|--6-----6--6-----6--6--6--4-----4--4-----4--4--4----|--4-----4--4-----4--4--4--2-----2--2-----2--2--2----|
----------------------------------------------------|----------------------------------------------------|--4-----4--4-----4--4--4--6-----6--6-----6--6--6----|--4-----4--4-----4--4--4--6-----6--6-----6--6--6----|--2-----2--2-----2--2--2--4-----4--4-----4--4--4----|----------------------------------------------------|
----------------------------------------------------|----------------------------------------------------|----------------------------------------------------|--6-----6--6-----6--6--6--4-----4--4-----4--4--4----|--6-----6--6-----6--6--6--4-----4--4-----4--4--4----|--4-----4--4-----4--4--4--2-----2--2-----2--2--2----|
Verse----------------------------------------------------|----------------------------------------------------|----------------------------------------------------|----------------------------------------------------|--2--2--2--2----------------------------------------|----------------------------------------------------|
----------------------------------------------------|----------------------------------------------------|----------------------------------------------------|----------------------------------------------------|--4--4--4--4----------------------------------------|----------------------------------------------------|
----------------------------------------------------|----------------------------------------------------|----------------------------------------------------|----------------------------------------------------|--7--7--7--7----------------------------------------|----------------------------------------------------|
----------------------------------------------------|----------------------------------------------------|----------------------------------------------------|----------------------------------------------------|--2--2--2--2----------------------------------------|----------------------------------------------------|
----------------------------------------------------|----------------------------------------------------|----------------------------------------------------|----------------------------------------------------|--2--2--2--2----------------------------------------|----------------------------------------------------|
----------------------------------------------------|----------------------------------------------------|----------------------------------------------------|----------------------------------------------------|--4--4--4--4----------------------------------------|----------------------------------------------------|
----------------------------------------------------|----------------------------------------------------|----------------------------------------------------|----------------------------------------------------|--7--7--7--7----------------------------------------|----------------------------------------------------|
----------------------------------------------------|----------------------------------------------------|----------------------------------------------------|----------------------------------------------------|--2--2--2--2----------------------------------------|----------------------------------------------------|
Pre-Chorus----------------------------------------------------|----------------------------------------------------|----------------------------------------------------|----------------------------------------------------|--7-----7--7--------------------------7-------------|----------------------------------------------------|
----------------------------------------------------|----------------------------------------------------|----------------------------------------------------|----------------------------------------------------|--6-----6--6--------------------------6-------------|----------------------------------------------------|
----------------------------------------------------|----------------------------------------------------|----------------------------------------------------|----------------------------------------------------|--7-----7--7--------------------------7-------------|----------------------------------------------------|
----------------------------------------------------|----------------------------------------------------|----------------------------------------------------|----------------------------------------------------|--9--9--9--9--9--9--9--9--9--9--9--9--9--9--9--9----|----------------------------------------------------|
----------------------------------------------------|----------------------------------------------------|----------------------------------------------------|----------------------------------------------------|--9--9--9--9--9--9--9--9--9--9--9--9--9-------------|----------------------------------------------------|
Chorus----------------------------------------------------|----------------------------------------------------|--4-----4--4-----4--4--4--6-----6--6-----6--6--6----|--4-----4--4-----4--4--4--6-----6--6-----6--6--6----|--2-----2--2-----2--2--2--4-----4--4-----4--4--4----|----------------------------------------------------|
----------------------------------------------------|----------------------------------------------------|----------------------------------------------------|--6-----6--6-----6--6--6--4-----4--4-----4--4--4----|--6-----6--6-----6--6--6--4-----4--4-----4--4--4----|--4-----4--4-----4--4--4--2-----2--2-----2--2--2----|
----------------------------------------------------|----------------------------------------------------|--4-----4--4-----4--4--4--6-----6--6-----6--6--6----|--4-----4--4-----4--4--4--6-----6--6-----6--6--6----|--2-----2--2-----2--2--2--4-----4--4-----4--4--4----|----------------------------------------------------|
----------------------------------------------------|----------------------------------------------------|----------------------------------------------------|--6-----6--6-----6--6--6--4-----4--4-----4--4--4----|--6-----6--6-----6--6--6--4-----4--4-----4--4--4----|--4-----4--4-----4--4--4--2-----2--2-----2--2--2----|
----------------------------------------------------|----------------------------------------------------|--4-----4--4-----4--4--4--6-----6--6-----6--6--6----|--4-----4--4-----4--4--4--6-----6--6-----6--6--6----|--2-----2--2-----2--2--2--4-----4--4-----4--4--4----|----------------------------------------------------|
----------------------------------------------------|----------------------------------------------------|----------------------------------------------------|--6-----6--6-----6--6--6--4-----4--4-----4--4--4----|--6-----6--6-----6--6--6--4-----4--4-----4--4--4----|--4-----4--4-----4--4--4--2-----2--2-----2--2--2----|
----------------------------|----------------------------|----------------------------|--2--2L-------2-------------|--2--2L-------2-------------|--0--0L-------0-------------|
----------------------------------------------------|----------------------------------------------------|----------------------------------------------------|--6--------6--------------4--------4----------------|--6--------6--------------4--------4----------------|--4--------4--------------2--------2----------------|
----------------------------------------------------|----------------------------------------------------|--4-----4--4-----4--4--4--6-----6--6-----6--6--6----|--4-----4--4-----4--4--4--6-----6--6-----6--6--6----|--2-----2--2-----2--2--2--4-----4--4-----4--4--4----|----------------------------------------------------|
----------------------------------------------------|----------------------------------------------------|----------------------------------------------------|--6-----6--6-----6--6--6--4-----4--4-----4--4--4----|--6-----6--6-----6--6--6--4-----4--4-----4--4--4----|--4-----4--4-----4--4--4--2-----2--2-----2--2--2----|
----------------------------------------------------|----------------------------------------------------|--4-----4--4-----4--4--4--6-----6--6-----6--6--6----|--4-----4--4-----4--4--4--6-----6--6-----6--6--6----|--2-----2--2-----2--2--2--4-----4--4-----4--4--4----|----------------------------------------------------|
Bridge----------------------------------------------------|-------|-------|-------|----------------------------------------------------|-------|-------|-------|----------------------------------------------------|--4----|-------|--4----|--6-----6--6-----6--6--6--4-----4--4-----4--4--4----|--4----|--6----|--4----|--6-----6--6-----6--6--6--4-----4--4-----4--4--4----|--2----|--6----|--2----|--4-----4--4-----4--4--4--2-----2--2-----2--2--2----|-------|--4----|-------|
-------|-------|-------|-------|-------|-------|-------|-------|-------|-------|-------|-------|-------|--4----|-------|--4----|-------|-------|--2----|--4----|--6----|--4----|--2----|-------|--2----|--2----|--6----|--2----|--2----|-------|--0----|-------|--4----|-------|--0----|-------|
Chorus/Outro----------------------------------------------------|----------------------------------------------------|--4-----4--4-----4--4--4--6-----6--6-----6--6--6----|--4-----4--4-----4--4--4--6-----6--6-----6--6--6----|--2-----2--2-----2--2--2--4-----4--4-----4--4--4----|----------------------------------------------------|
----------------------------------------------------|----------------------------------------------------|----------------------------------------------------|--6-----6--6-----6--6--6--4-----4--4-----4--4--4----|--6-----6--6-----6--6--6--4-----4--4-----4--4--4----|--4-----4--4-----4--4--4--2-----2--2-----2--2--2----|
----------------------------------------------------|----------------------------------------------------|--4-----4--4-----4--4--4--6-----6--6-----6--6--6----|--4-----4--4-----4--4--4--6-----6--6-----6--6--6----|--2-----2--2-----2--2--2--4-----4--4-----4--4--4----|----------------------------------------------------|
----------------------------------------------------|----------------------------------------------------|----------------------------------------------------|--6-----6--6-----6--6--6--4-----4--4-----4--4--4----|--6-----6--6-----6--6--6--4-----4--4-----4--4--4----|--4-----4--4-----4--4--4--2-----2--2-----2--2--2----|
----------------------------------------------------|----------------------------------------------------|--4-----4--4-----4--4--4--6-----6--6-----6--6--6----|--4-----4--4-----4--4--4--6-----6--6-----6--6--6----|--2-----2--2-----2--2--2--4-----4--4-----4--4--4----|----------------------------------------------------|
----------------------------------------------------|----------------------------------------------------|----------------------------------------------------|--6-----6--6-----6--6--6--4-----4--4-----4--4--4----|--6-----6--6-----6--6--6--4-----4--4-----4--4--4----|--4-----4--4-----4--4--4--2-----2--2-----2--2--2----|
----------------------------|----------------------------|----------------------------|----------------------------|----------------------------|----------------------------|--2--2L-------2-------------|--2--2L-------2-------------|--2--2L-------2-------------|--2--2L-------2-------------|--0--0L-------0-------------|--0--0L-------0-------------|
----------------------------|----------------------------|----------------------------|--2--2L-------2-------------|--2--2L-------2-------------|--0--0L-------0-------------|
----------------------------------------------------|----------------------------------------------------|----------------------------------------------------|--6--------6--------------4--------4----------------|--6--------6--------------4--------4----------------|--4--------4--------------2--------2----------------|
----------------------------------------------------|----------------------------------------------------|--4-----4--4-----4--4--4--6-----6--6-----6--6--6----|--4-----4--4-----4--4--4--6-----6--6-----6--6--6----|--2-----2--2-----2--2--2--4-----4--4-----4--4--4----|----------------------------------------------------|
----------------------------------------------------|----------------------------------------------------|----------------------------------------------------|--6-----6--6-----6--6--6--4-----4--4-----4--4--4----|--6-----6--6-----6--6--6--4-----4--4-----4--4--4----|--4-----4--4-----4--4--4--2-----2--2-----2--2--2----|
----------------------------------------------------|----------------------------------------------------|--4-----4--4-----4--4--4--6-----6--6-----6--6--6----|--4-----4--4-----4--4--4--6-----6--6-----6--6--6----|--2-----2--2-----2--2--2--4-----4--4-----4--4--4----|----------------------------------------------------|
----------------------------------------------------|-------||----------------------------------------------------|-------||----------------------------------------------------|-------||--6-----6--6-----6--6--6--4-----4--4-----4--4--4----|-------||--6-----6--6-----6--6--6--4-----4--4-----4--4--4----|-------||--4-----4--4-----4--4--4--2-----2--2-----2--2--2----|-------||
Tap to rate this tab
 
# A B C D E F G H I J K L M N O P Q R S T U V W X Y Z