All Time Low - Girls A Straight Up Hustler tab

Artist: All Time Low
Song: "The Girl's A Straight Up Hustler"
Album: The Party Scene
Record Label: Emerald Moon Records

Tuning: Standard 

INTRO
GUITAR ONE

|-----------------------------------||-------8--8--8--8----3--3---3--3---||-----0--0--0--0-----0--0---0--0----||-----------------------------------||---7--7--6--6-----2--2---3--3------||-----------------------------------|
|------------------------------------||-------8--8--8--8----3--3--3--3--3--||-----0--0--0--0-----0--0--0--0--0---||------------------------------------||---7--7--6--6-----------------------||-----------------3--3---2--2--0-----|
VERSE GUITAR ONE:
|-----------------------------------||-------8--8--8--8----3--3---3--3---||-----0--0--0--0-----0--0---0--0----||-----------------------------------||---7--7--6--6-----2--2---3--3------||-----------------------------------|
|------------------------------------||-------8--8--8--8----3--3--3--3--3--||-----0--0--0--0-----0--0--0--0--0---||------------------------------------||---7--7--6--6-----------------------||-----------------3--3---2--2--0-----|
CONTINUE TWO OR THREE TIMES GUITAR TWO: DOES THE PLAYING A LITTLE DIFFERENT LISTEN TO THE SONG
|-----------------------------------||-------8--8--8--8----3--3---3--3---||-----0--0--0--0-----0--0---0--0----||-----------------------------------||---7--7--6--6-----2--2---3--3------||-----------------------------------|
|------------------------------------||-------8--8--8--8----3--3--3--3--3--||-----0--0--0--0-----0--0--0--0--0---||------------------------------------||---7--7--6--6-----------------------||-----------------3--3---2--2--0-----|
CONTINUE TWO OR THREE TIMES ChoruS GUITAR ONE: CLEAN
|--------------------------------------------||--------------------------------------[x2]--||------------7-7-7-7--5-5-5-5--7-7-7-7-------||---5-5-5-5--7-7-7-7--5-5-5-5--7-7-7-7-------||---5-5-5-5--5-5-5-5--3-3-3-3--5-5-5-5-------||---3-3-3-3----------------------------------|
GUITAR TWO DISTORTED
|--------------------------------------------||--------------------------------------[x2]--||------------7-7-7-7--5-5-5-5--7-7-7-7-------||---5-5-5-5--7-7-7-7--5-5-5-5--7-7-7-7-------||---5-5-5-5--5-5-5-5--3-3-3-3--5-5-5-5-------||---3-3-3-3----------------------------------|
INTERLUDE PART ONE:
GUITAR ONE|-----------------------------------||-----8--------8-------8-------8----||---0---0----0---0---0---0---0---0--||-----------------------------------||-7--------6------------------------||------------------7-------8--------|
|---------------------||-----8--------8------||---0---0----0---0----||---------------------||-7--------6----------||------------------3--|
PART TWO: GUITAR ONE: DISTORTED
|-----------------------------------------------||-----------------------------------------------||---9-9-9-9--12-12-12-12--5-5-5-5--12-12-12-12--||---9-9-9-9---x--x--x--x--5-5-5-5---x--x--x--x--||---7-7-7-7--10-10-10-10--7-7-7-7--10-10-10-10--||-----------------------------------------------|
|--------------------------------------------||--------------------------------------------||------------7-7-7-7---------------7-7-7-7---||---9-9-9-9--x-x-x-x--10-10-10-10--x-x-x-x---||---9-9-9-9--5-5-5-5--10-10-10-10--5-5-5-5---||---7-7-7-7------------8--8--8--8------------|
|-----------------------------------------------------------||-----------------------------------------------------------||---9-9-9-9--12-12-12-12--5-5-5-5--12-12-12-12--------------||---9-9-9-9---x--x--x--x--5-5-5-5---x--x--x--x--5-5--5-5-5--||---7-7-7-7--10-10-10-10--7-7-7-7--10-10-10-10--5-5--5-5-5--||-----------------------------------------------3-3--3-3-3--|
GUITAR TWO: DISTORTED
|------------------------------------||-----------8-8-8-8-------8-8-8-8----||---9-9--------------9-9-------------||---9-9--------------9-9-------------||---7-7--------------6-6-------------||------------------------------------|
|--------------------------------------------||--------------------------------------------||------------3-3-3-3-----------3-3-3-3-------||---9-9-9-9-----------5-5-5-5----------------||---9-9-9-9-----------5-5-5-5----------------||---7-7-7-7-----------7-7-7-7----------------|
VERSE: JUST THE POWER CHORDS OF THE INTERLUDE ALL MIXED INTO THE VERSE
|-------------------------||-------------------------||---9-9---9-9-------------||---9-9---9-9-------------||---7-7---6-6-------------||-------------------------|
|---------------------------------||---------------------------------||---------------------------------||---9-9-9--5-5-5-5----------------||---9-9-9--5-5-5-5----------------||---7-7-7--7-7-7-7----------------|
ChoruS GUITAR ONE: CLEAN
|--------------------------------------------||--------------------------------------[x2]--||------------7-7-7-7--5-5-5-5--7-7-7-7-------||---5-5-5-5--7-7-7-7--5-5-5-5--7-7-7-7-------||---5-5-5-5--5-5-5-5--3-3-3-3--5-5-5-5-------||---3-3-3-3----------------------------------|
GUITAR TWO DISTORTED
|--------------------------------------------||--------------------------------------[x2]--||------------7-7-7-7--5-5-5-5--7-7-7-7-------||---5-5-5-5--7-7-7-7--5-5-5-5--7-7-7-7-------||---5-5-5-5--5-5-5-5--3-3-3-3--5-5-5-5-------||---3-3-3-3----------------------------------|
BREAKDOWN:
|------------------------------------------------||------------------------------------------[x5]--||--9-9-9-9--7-7-7-7------------------------------||--9-9-9-9--7-7-7-7--9-9-9-9--10-10-10-10--------||--7-7-7-7--5-5-5-5--7-7-7-7--10-10-10-10--------||--------------------7-7-7-7---8--8--8--8--------|
ChoruS GUITAR ONE: CLEAN
|--------------------------------------------||--------------------------------------[x2]--||------------7-7-7-7--5-5-5-5--7-7-7-7-------||---5-5-5-5--7-7-7-7--5-5-5-5--7-7-7-7-------||---5-5-5-5--5-5-5-5--3-3-3-3--5-5-5-5-------||---3-3-3-3----------------------------------|
GUITAR TWO DISTORTED
|--------------------------------------------||--------------------------------------[x2]--||------------7-7-7-7--5-5-5-5--7-7-7-7-------||---5-5-5-5--7-7-7-7--5-5-5-5--7-7-7-7-------||---5-5-5-5--5-5-5-5--3-3-3-3--5-5-5-5-------||---3-3-3-3----------------------------------|
ENDING: GUITAR ONE: CLEAN
|-----------------------------------||-------8--8--8--8----3--3---3--3---||-----0--0--0--0-----0--0---0--0----||-----------------------------------||---7--7--6--6-----2--2---3--3------||-----------------------------------|
|------------------------------------||-------8--8--8--8----3--3--3--3--3--||-----0--0--0--0-----0--0--0--0--0---||------------------------------------||---7--7--6--6-----------------------||-----------------3--3---2--2--0-----|
Tap to rate this tab
 
# A B C D E F G H I J K L M N O P Q R S T U V W X Y Z